Guitar Tabs, Chords and Lyrics


Declare Guerre Nucleaire   Hives

   [Em]   [B5]   [Cm]   [G5]   [Bm]   [Bbm]                                                            
e------------------1~~~~---|
B---8-----4-----3--2~~~~---|
G---9-----5-----4--3~~~~---|
D---9--9--5--5--4--3~~~~---|
A---7--9--3--5--2--1~~~~---|
E------7-----3-------------|


Guitar 1 Verse
    [E5]    [G5]   [E5]   [G5]   [G#5]    [A5]       [B5]                                                  
e-----------------------------------------|
B-----------------------------------------|
G---9-9--12-9-12-13--14-14--16-16-16-16---|
D---9-9--12-9-12-13--14-14--16-16-16-16---|
A---7-7--10-7-10-11--12-12--14-14-14-14---|
E-----------------------------------------|


Guitar 2 (build up)

e---------------------------------------|
B---------------------------------------|
G---------------------------------------|
D---------------------------------------|
A---------------------------------------|
E---0-0-0-0-0-0-0-0-0-0-0-0-0-0-0-0-0---|


Chorus ("oh...")
    [E5]                                                                          
e-----------|
B-----------|
G---9~~~~---|
D---9~~~~---|
A---7~~~~---|
E-----------|


Intro x1
Guitar 1 only verse x2
Build up (over the verse the second time)
Verse x8
Bridge
Verse x8
Bridge
Verse x4

That's it.

Important: The song above is NOT stored on the Chordie server. The original song is hosted at www.xguitar.com. Chordie works as a search engine and provides on-the-fly formatting. Chordie does not index songs against artists'/composers' will. To remove this song please click here.

Text color:
Chord color:
Chord grids: 
Font size:    
Page size: 

A5 B5 Bbm Bm Cm E5 Em G#5 G5
variations - click chord images

Login - add to songbook

Transpose chords

Tuning

Rating click stars to rate

Layout
Accuracy

SHARE PAGE  




You need to log in to post comments