Guitar Tabs, Chords and Lyrics


Die, All Right!    Hives



The Hives : Die, Alright!
Full credit to the Hives and their producers!
Tabbed by TBRR (richardg.pugh@ntlworld.com)

Drum fill for intro!

Intro:
X3
e|--------------------|
B|--------------------|
G|--------------------|
D|-2-5-7--5-5-9-9-9-9-|
A|-2-5-7--5-5-9-9-9-9-|
E|-0-3-5--3-3-7-7-7-7-|

Riff 2
X1
e|-------|
B|-------|
G|-------|
D|-2-5-7-|
A|-2-5-7-|
E|-0-3-5-|

Verse:
X5
e|--------------------|
B|--------------------|
G|--------------------|
D|-2-5-7--5-5-9-9-9-9-|
A|-2-5-7--5-5-9-9-9-9-|
E|-0-3-5--3-3-7-7-7-7-|

X1
e|--------------------------------|
B|--------------------------------|
G|--------------------------------|
D|-10101010101010109-9-9-9-9-9-9-9|
A|-10101010101010109-9-9-9-9-9-9-9|
E|-8-8-8-8-8-8-8-8-7-7-7-7-7-7-7-7|

X4
e|--------------------|
B|--------------------|
G|--------------------|
D|-2-5-7--5-5-9-9-9-9-|
A|-2-5-7--5-5-9-9-9-9-|
E|-0-3-5--3-3-7-7-7-7-|

Prechorus:
X1
e|-------------------------------------------------|
B|-------------------------------------------------|
G|-------------------------------------------------|
D|-10101010101010109-9-9-9-9-9-9-9-9-9-9-9-9-9-9-9-|
A|-10101010101010109-9-9-9-9-9-9-9-9-9-9-9-9-9-9-9-|
E|-8-8-8-8-8-8-8-8-7-7-7-7-7-7-7-7-7-7-7-7-7-7-7-7-|

Chorus:
X4
e|------------------------------|-----------------------------|
B|------------------------------|-----------------------------|
G|-9-9-9-9-9-9-1212-7-7-7-7-7---|-----------------------------|
D|-9-9-9-9-9-9-1212-7-7-7-7-7---|-5-5-5-5-5-5-5-5-7-7-7-7-7---|
A|-7-7-7-7-7-7-1010-5-5-5-5-5---|-5-3-5-5-5-5-5-5-7-7-7-7-7---|
E|------------------------------|-3-3-3-3-3-3-3-3-5-5-5-5-5---|

Drum fill from intro!

Verse:
X6
e|--------------------|
B|--------------------|
G|--------------------|
D|-2-5-7--5-5-9-9-9-9-|
A|-2-5-7--5-5-9-9-9-9-|
E|-0-3-5--3-3-7-7-7-7-|

Prechorus:
X1
e|-------------------------------------------------|
B|-------------------------------------------------|
G|-------------------------------------------------|
D|-10101010101010109-9-9-9-9-9-9-9-9-9-9-9-9-9-9-9-|
A|-10101010101010109-9-9-9-9-9-9-9-9-9-9-9-9-9-9-9-|
E|-8-8-8-8-8-8-8-8-7-7-7-7-7-7-7-7-7-7-7-7-7-7-7-7-|

Chorus:
X4
e|------------------------------|-----------------------------|
B|------------------------------|-----------------------------|
G|-9-9-9-9-9-9-1212-7-7-7-7-7---|-----------------------------|
D|-9-9-9-9-9-9-1212-7-7-7-7-7---|-5-5-5-5-5-5-5-5-7-7-7-7-7---|
A|-7-7-7-7-7-7-1010-5-5-5-5-5---|-5-3-5-5-5-5-5-5-7-7-7-7-7---|
E|------------------------------|-3-3-3-3-3-3-3-3-5-5-5-5-5---|

Riff 2:
X1
e|------------------------------------------------------------------|
B|------------------------------------------------------------------|
G|------------------------------------------------------------------|
D|-1212121212121212-5-5-5-5-5-5-5-5-9-9-9-9-9-9-9-9-9-9-9-9-9-9-9-9-|
A|-1212121212121212-5-5-5-5-3-3-5-5-9-9-9-9-9-9-9-9-9-9-9-9-9-9-9-9-|
E|-1010101010101010-3-3-3-3-3-3-3-3-7-7-7-7-7-7-7-7-7-7-7-7-7-7-7-7-|

Bridge:
X1
e|------------|
B|------------|
G|------------|
D|-2--5--7----|
A|-2--5--7----|
E|-0--3--5----|

Drum fill

Riff 2
X1
e|-----------------------------------------------------------------------------------------------------------------|
B|-----------------------------------------------------------------------------------------------------------------|
G|-----------------------------------------------------------------------------------------------------------------|
D|-9-9-9-9-9-9-9-9-9-9-9-9-9-9-9-9-7-7-7-7-7-7-7-7-7-7-7-7-7-7-7-7-12-12-12-12-12-12-12-12-12-12-12-12-12-12-12-12-|
A|-9-9-9-9-9-9-9-9-9-9-9-9-9-9-9-9-7-7-7-7-7-7-7-7-7-7-7-7-7-7-7-7-12-12-12-12-12-12-12-12-12-12-12-12-12-12-12-12-|
E|-7-7-7-7-7-7-7-7-7-7-7-7-7-7-7-7-5-5-5-5-5-5-5-5-5-5-5-5-5-5-5-5-10-10-10-10-10-10-10-10-10-10-10-10-10-10-10-10-|

Riff 3
X1
e|------------------------------------------------------------|
B|------------------------------------------------------------|
G|------------------------------------------------------------|
D|-10-10-10-10-10-10-10-10-10-10-10-10-10-10-10-10-10-10-10-10|
A|-10-10-10-10-10-10-10-10-10-10-10-10-10-10-10-10-10-10-10-10|
E|-8--8--8--8--8--8--8--8--8--8--8--8--8--8--8--8--8--8--8--8-|

Riff 4:
X1
e|--------------------|
B|--------------------|
G|--------------------|
D|-2-5-7--5-5-9-9-9-9-|
A|-2-5-7--5-5-9-9-9-9-|
E|-0-3-5--3-3-7-7-7-7-|

Prechorus:
X1
e|-------------------------------------------------|
B|-------------------------------------------------|
G|-------------------------------------------------|
D|-10101010101010109-9-9-9-9-9-9-9-9-9-9-9-9-9-9-9-|
A|-10101010101010109-9-9-9-9-9-9-9-9-9-9-9-9-9-9-9-|
E|-8-8-8-8-8-8-8-8-7-7-7-7-7-7-7-7-7-7-7-7-7-7-7-7-|


Chorus:
X4
e|----------------------------------|---------------------------------|
B|----------------------------------|---------------------------------|
G|-9-9-9-9-9-9-1212-7-7-7-7-7-7-7-7-|---------------------------------|
D|-9-9-9-9-9-9-1212-7-7-7-7-7-7-7-7-|-5-5-5-5-5-5-5-5-7-7-7-7-7-7-7-7-|
A|-7-7-7-7-7-7-1010-5-5-5-5-5-5-5-5-|-5-3-5-5-5-5-5-5-7-7-7-7-7-7-7-7-|
E|----------------------------------|-3-3-3-3-3-3-3-3-5-5-5-5-5-5-5-5-|

Outro:
X1
e|-----------|
B|-----------|
G|-----------|
D|-9~~~~~~~~~|
A|-9~~~~~~~~~|
E|-7~~~~~~~~~|



Important: The song above is NOT stored on the Chordie server. The original song is hosted at www.xguitar.com. Chordie works as a search engine and provides on-the-fly formatting. Chordie does not index songs against artists'/composers' will. To remove this song please click here.

This song is displayed as text-only. Transposing and tuning is only available for chordpro-songs.

Login - add to songbook

Rating click stars to rate

Layout
Accuracy

SHARE PAGE  




You need to log in to post comments