Guitar Tabs, Chords and Lyrics


Find Another Girl    Hives



The Hives - Find Yourself Another Girl
Tabbed By: Pseudo
Email: acook1@attbi.com

Tuning: Standard (E A D G B E)


The Verse and Chorus are the same, and play the first half of the Intro
each time between them (first half is marked with the line above it)

Intro
                 B     |
e--------------------------------------------|
B------7-9-7---7-77----------------7---------|
G---/9-------9---88-6-9--9-9-9-9-9-----6/9---|
D----------------99------------------9-------|
A--------------------------------------------|
E--------------------------------------------|

Verse/Chorus
    E      C#m     x3  F#   E  x2
e----------------------2---------|
B-----9-9-----5-5------2----9----| (I can't hear the exact
G-----9--9----6--6-----3----9----|  picking/strumming pattern if there
D-----9---9---6---6----4----9----|  is one in the second part)
A---7-------4---------------7----|
E--------------------------------|

Order of Song

Full Intro
Chorus x1
Verse x2
Chorus x1
Verse x2
Chorus x1
Verse x2
Chorus x1 (fade)



Important: The song above is NOT stored on the Chordie server. The original song is hosted at www.xguitar.com. Chordie works as a search engine and provides on-the-fly formatting. Chordie does not index songs against artists'/composers' will. To remove this song please click here.

This song is displayed as text-only. Transposing and tuning is only available for chordpro-songs.

Login - add to songbook

Rating click stars to rate

Layout
Accuracy

SHARE PAGE  




You need to log in to post comments