Guitar Tabs, Chords and Lyrics


Inspection Wise 1999   Hives

e---x-x-x-3-0---0----------------------------------------------0---0---|


B-------------3------------------------------------------x-x-3---3-----|


G--------------------x-x-x-2-0---0----x-x-x-2-0---0----x---------------|

D------------------------------2----------------2----------------------|
A----------------------------------------------------------------------|
E----------------------------------------------------------------------|
    [E]     [Eb]   [D]    [B]  [D]  [A]    [A]    [E]    [B]    [D]    [A]                                   
e---------------------------------------------|
B---------------------------------------------|
G---9---9-8-7-----7---------9-9-----7-7-------|(all chords are fifths)
D---9---9-8-7---9-7-7---7-7-9-9-9-9-7-7-7-7---|
A---7---7-6-5---9-5-7---7-7-7-7-9-9-5-5-7-7---|
E---------------7---5---5-5-----7-7-----5-5---|

Chorus
    [B5]                                [E5]                [A5]                       
e---------------------------------------------------------------------|
B---------------------------------------------------------------------|
G-----------------------------------9-9-9-9-9-9-9-9-------------------|
D---9-9-9-9-9-9-9-9-9-9-9-9-9-9-9-9-9-9-9-9-9-9-9-9-7-7-7-7-7-7-7-7---|
A---9-9-9-9-9-9-9-9-9-9-9-9-9-9-9-9-7-7-7-7-7-7-7-7-7-7-7-7-7-7-7-7---|
E---7-7-7-7-7-7-7-7-7-7-7-7-7-7-7-7-----------------5-5-5-5-5-5-5-5---|


Bridge Guitar 2

e-----------------------------------|
B-----------------------------------|
G-----------------------------------|
D---x-x-x-x-x-x-x-x-x-x-x-x-x-x-x-x-|
A---x-x-x-x-x-x-x-x-x-x-x-x-x-x-x-x-|
E---x-x-x-x-x-x-x-x-x-x-x-x-x-x-x-x-|


Outro Guitar 1

e------------------------------------------------|
B------------------------------------------------|
G------------------------------------------------|
D-----0---0------0---0------0---0------0---0-----|
A---2---2---2--2---2---2--2---2---2--2---2---2---|
E------------------------------------------------|


Order of Song

Intro Guitar 1 x3
Verse Guitar 2 x2
Verse x2
Chorus x2
Bridge x4
Intro Guitar 1 x1
Verse x2
Chorus x4
Outro Guitar 1 x1

That's it.

Important: The song above is NOT stored on the Chordie server. The original song is hosted at www.xguitar.com. Chordie works as a search engine and provides on-the-fly formatting. Chordie does not index songs against artists'/composers' will. To remove this song please click here.

Text color:
Chord color:
Chord grids: 
Font size:    
Page size: 

A A5 B B5 D E E5 Eb
variations - click chord images

Login - add to songbook

Transpose chords

Tuning

Rating click stars to rate

Layout
Accuracy

SHARE PAGE  




You need to log in to post comments