Guitar Tabs, Chords and Lyrics


Introduce the Metric System in Time    Hives



Song:  The Hives: Introduce the Metric System in Time
Band:  The Hives

Intro

e |-------------------------------------------|   x8
B |-------------------------------------------|
G |--4--6--4-----6--6----4--6--4-----9--9-----|
D |--4--6--4--6--4--4----4--6--4--6--9--9-----|
A |--2--4--2--6--4--4----2--4--2--6--7--7-----|
E |-----------4-------------------4-----------|

Intro of verse 1

e |-----------|
B |-----------|
G |-----------|
D |-----------|
A |-4--2--4-4-|
E |-----------|

Verse 1

e |-------------------------------------------------|   x2
B |-------------------------------------------------|
G |-11-11-11-11-11-11-11-11-11-11-11-11-11-11-11-11-|
D |-11-11-11-11-11-11-11-11-11-11-11-11-11-11-11-11-|
A |--9--9--9--9--9--9--9--9--9--9--9--9--9--9--9--9-|
E |-------------------------------------------------|

Chorus

e |-------------------------------------------|   x4
B |-------------------------------------------|
G |--6--6----4--6--4--------9--9--4--6--4-----|
D |--6--6----4--6--4--6-----9--9--4--6--4--6--|
A |--4--4----2--4--2--6-----7--7--2--4--2--6--|
E |-------------------4--------------------4--|

Verse 2

e |-------------------------------------------------|   x2
B |-------------------------------------------------|
G |-11-11-11-11-11-11-11-11-11-11-11-11-11-11-11-11-|
D |-11-11-11-11-11-11-11-11-11-11-11-11-11-11-11-11-|
A |--9--9--9--9--9--9--9--9--9--9--9--9--9--9--9--9-|
E |-------------------------------------------------|

Chorus

e |-------------------------------------------|   x8
B |-------------------------------------------|
G |--6--6----4--6--4--------9--9--4--6--4-----|
D |--6--6----4--6--4--6-----9--9--4--6--4--6--|
A |--4--4----2--4--2--6-----7--7--2--4--2--6--|
E |-------------------4--------------------4--|

end on

e |---|
B |---|
G |-6-|
D |-6-|
A |-4-|


Important: The song above is NOT stored on the Chordie server. The original song is hosted at www.xguitar.com. Chordie works as a search engine and provides on-the-fly formatting. Chordie does not index songs against artists'/composers' will. To remove this song please click here.

This song is displayed as text-only. Transposing and tuning is only available for chordpro-songs.

Login - add to songbook

Rating click stars to rate

Layout
Accuracy

SHARE PAGE  




You need to log in to post comments