Guitar Tabs, Chords and Lyrics


Statecontrol    Hives



Band Name:Hives
Song Name:Statecontrol
Tuning:Standart
Intro
------------------------------------------------------------------------------------
------------------------------------------------------------------------------------
------------------------------------------------------------------------------------
------------------------------------------------------------------------------------
---------------------88-101010101010-x2---------------------------------------------
-333333-666666-888888---------------------------------------------------------------

Main Riff
------------------------------------------------------------------------------------
------------------------------------------------------------------------------------
----------8-------88-x--------------------------------------------------------------
---5-8-10-8-10-88-88-x-10-----------------------------------------------------------
---5-8-10-6-10-88-66-x-10-x3--------------------------------------------------------
-0-3-6-8----8--66------8------------------------------------------------------------

Main Riff 2
------------------------------------------------------------------------------------
------------------------------------------------------------------------------------
----------8\-8\-8\-8\---------------------------------------------------------------
---5-8-10-8\-8\-8\-8\---------------------------------------------------------------
---5-8-10-6\-6\-6\-6\---------------------------------------------------------------
-0-3-6-8----------------------------------------------------------------------------
Main Riff again
Chorus i think it is played by bass-guitar
------------------------------------------------------------------------------------
------------------------------------------------------------------------------------
------------------------------------------------------------------------------------
------------------------------------------------------------------------------------
------------------------------------------------------------------------------------
-0-3-6-8-x4-------------------------------------------------------------------------
Main Riff
MainRiff2
Main Riff
Chorus
Chorus2(i don't how to play it)
Main Riff but only bass


Important: The song above is NOT stored on the Chordie server. The original song is hosted at www.xguitar.com. Chordie works as a search engine and provides on-the-fly formatting. Chordie does not index songs against artists'/composers' will. To remove this song please click here.

This song is displayed as text-only. Transposing and tuning is only available for chordpro-songs.

Login - add to songbook

Rating click stars to rate

Layout
Accuracy

SHARE PAGE  




You need to log in to post comments