Chordie logo

Supply and Demand    Hives



The Hives - Supply and Demand
Tabbed By: guitarman_9690
Email: dandadood@charter.net

Tuning: Standard (E A D G B E)

This is a good song but I hadn't seen any good tabs for it so here we go.
  When playing the verse after the chorus be sure to play the intro as well.
Also, when playing the chorus for the third time you have to play part 1 four
times instead of just once and then go directly in to the second part.

Order:
Intro
verse
pre-chorus
chorus
intro
verse
pre-chorus
chorus
interlude
pre-chorus
chorus

Intro
e|----------------||
B|----------------||
G|----------------||
D|----------------||
A|-----10---------||
E|-----8----------||

Verse
e|----------------------------------------------------------------||
B|----------------------------------------------------------------||
G|----------------------------------------------------------------||
D|------------------------------------5---------------------------||
A|----8--10-----8--10-----8--10-------5---------------------------||
E|----6--8------6--8------6--8--------3---------------------------||


e|----------------------------------------------------------------||
B|----------------------------------------------------------------||
G|----------------------------------------------------------------||
D|----------------------------------------------------------------||
A|----8--10-----8--10-----8--10-----8--10-------------------------||
E|----6--8------6--8------6--8------6--8--------------------------||

Pre-Chorus
e|--------------------------------||
B|--------------------------------||
G|-----------4--------------------||
D|----5-5-5--4--------------------||
A|----5-5-5--2--------------------||
E|----3-3-3-----------------------||

Chorus Part 1
e|--------------|----------0----------------------0---------------||
B|--------------|-------------------------------------------------||
G|--------------|--22--2/4---2-0----------22--2/4---2-0-----------||
D|--22--22--22--|--22-------------22--22--22----------------------||
A|--22--22--22--|--00-------------22--22--00----------------------||
E|--00--00--00--|-----------------00--00--------------------------||

Chorus Part 2
e|----------------------------------------------------------------||
B|----------------------------------------------------------------||
G|----------22------55--44----------------------------------------||
D|--22--22--22--55--55--44--22--22--22--22------------------------||
A|--22--22--00--55--33--22--22--22--22--22------------------------||
E|--00--00------33----------00--00--00--00------------------------||

Interlude
e|----------------------------------------------------------------||
B|----------------------------------------------------------------||
G|----------------------------------------------------------------||

D|--10----8--10----8--10----8--10----8--10----8--10----8--10----5-||
A|--10----6--8-----8--10----6--8-----8--10----6--8-----8--10----5-||
E|--8--------------6--8--------------6--8--------------6--8-----3-||


E|----------------------------------------------------------------||
B|----------------------------------------------------------------||
G|----------------------------------------------------------------||
D|--8--10----8--10----8--10----8--10----8--10----8--10----8--10---||
A|--8--10----6--8-----8--10----6--8-----8--10----6--8-----8--10---||


Important: The song above is NOT stored on the Chordie server. The original song is hosted at www.xguitar.com. Chordie works as a search engine and provides on-the-fly formatting. Chordie does not index songs against artists/composers will. To remove this song please click here.

This song is displayed as text-only. Transposing and tuning is only available for chordpro-songs.

Login - add to songbook

Rating click stars to rate

Layout
Accuracy

SHARE PAGE  



You need to log in to post comments