eToCache5 = ""; ?> Doll Parts by Hole - guitar chords, guitar tabs and lyrics - chordie

Doll Parts

Hole

|----------------------------|-----------------------|---------------------|

|--2------2------2-----------|--0------0----0--------|--0------------------|

|--2------2------2-----------|--0------0----0--------|--0------------------|

|--2------2------2------2----|--2------2----2--------|--0------------------|

|--0------0------0------0----|--3------3----3----2---|--2-----2------2-----|

|----------------------------|-----------------------|--3-----3------3---0-|

|-----------------------|

|--0------0---0---------|

|--0------0---0---------|

|--2------2---2---------|

|--3------3---3----0----|

|-----------------------|

|----------------------------|-----------------------|---------------------|

|--2------2------2-----------|--0------0----0--------|--0------------------|

|--2------2------2-----------|--0------0----0--------|--0------------------|

|--2------2------2------2----|--2------2----2--------|--0------------------|

|--0------0------0------0----|--3------3----3----2---|--2-----2------2-----|

|----------------------------|-----------------------|--3-----3------3---0-|

|-----------------------|

|--0------0---0---------|

|--0------0---0---------|

|--2------2---2---------|

|--3------3---3----0----|

|-----------------------|

|------------------------------------3---|---------------------------------|

|--2------2----2---2--0-----0--------3---|---------------------------------|

|--2------2----2---2--0-----0--------0---|---------------------------------|

|--2------2----2---2--2-----2--------0---|---------------------------------|

|--0------0----0---0--3-----3---2----2---|---------------------------------|

|------------------------------------3---|---------------------------------|

|------3---3---3---3--3-------|

|--3---3---3---3---3--3-------|

|--0---0---0---0---0--0--0----|

|--0---0---0---0---0--0--0----|

|----------2---2---2--2--2----|

|--------------3---3--3--3----|

                                                -----play 4x--------------

|----------------------------------3--|--------|-3--3--3--3--3--3----------|

|--2----2----2---2----0----0-------3--|--------|-3--3--3--3--3--3---x------|

|--2----2----2---2----0----0-------0--|--------|-0--0--0--0--0--0---x------|

|--2----2----2---2----2----2-------0--|--------|-0--0--0--0--0--0---x------|

|--0----0----0---0----3----3----2--2--|--------|-2--2--2--2--2--2---x------|

|----------------------------------3--|--------|-3--3--3--3--3--3---x------|

|-----------------------------------------3---|--------------|-------------|

|----------------------0------0-----------3---|--------------|-------------|

|----------------------0------0-----------0---|--------------|-------------|

|--2------2----2---2---2------2-----------0---|--------------|-------------|

|--0------0----0---0---3------3-----2-----2---|--------------|-------------|

|-----------------------------------------3---|--------------|-------------|

                                             ------play 4x-----------------

|--------------------------------3--|--------|----3--3--3--3--3------------|

|-2------2---2---2---0---0-------3--|--------|-3--3--3--3--3--3------------|

|-2------2---2---2---0---0-------0--|--------|-0--0--0--0--0--0--0---------|

|-2------2---2---2---2---2-------0--|--------|-0--0--0--0--0--0--0---------|

|-0------0---0---0---3---3---2---2--|--------|-------2--2--2--2--2---------|

|--------------------------------3--|--------|----------3--3--3--3---------|

                                    ------play 6x-------

|--------------------------------3--|------3----3-------|

|-2------2---2---2---0---0-------3--|------3----3-----3-|

|-2------2---2---2---0---0-------0--|------0----0-----0-|

|-2------2---2---2---2---2-------0--|--0--------0-----0-|

|-0------0---0---0---3---3---2---2--|--2----------------|

|--------------------------------3--|--3----------------|

---------------------------------

|---------------3----3---3--------|

|----------3----3----3---3--------|

|------0---0----0----0---0----x---|

|--0---0---0----0----0---0----x---|

|--2------------2----2---2----x---|

|--3------------3----3---3----x---|

|--------------------------------------3--|--------------------------------|

|---2--------------------0----0--------3--|--------------------------------|

|---2--------------------0----0--------0--|--------------------------------|

|---2-----2----2----2----2----2--------0--|--------------------------------|

|---0-----0----0----0----3----3----2---2--|--------------------------------|

|--------------------------------------3--|--------------------------------|

/---------------------------------\

\---------------------------------/


 ACmaj7GCmaj7
eÚÂÄÄÄÄÄÄÄÄÄÄÄÄÄÄÄÄÄÄÄÄÄÂÄÄÄÄÄÄÄÄÄÄÄÄÄÄÄÄÂÄÄÄÄÄÄÄÄÄÄÄÄÄÄÄÄÂÄÄÄÄÄÄÄÄÄÄÄÄÄÄÄÄÄ¿
B³Ã*ÄÄ(2)ÄÄÄÄ(2)Ä(2)ÄÄÄÄÅÄ0ÄÄÄÄÄ0ÄÄÄ0ÄÄÄÄÅÄ0ÄÄÄÄÄÄÄÄÄÄÄÄÄÄÅÄ0ÄÄÄÄ0ÄÄ0ÄÄÄÄÄÄ*´³ ³³
G³ÃÄÄÄÄ2ÄÄÄÄÄÄ2ÄÄÄ2ÄÄÄÄÄÅÄ0ÄÄÄÄÄ0ÄÄÄ0ÄÄÄÄÅÄ0ÄÄÄÄÄÄÄÄÄÄÄÄÄÄÅÄ0ÄÄÄÄ0ÄÄ0ÄÄÄÄÄÄÄ´³
D³ÃÄÄÄÄ2ÄÄÄÄÄÄ2ÄÄÄ2ÄÄÄ2ÄÅÄ2ÄÄÄÄÄ2ÄÄÄ2ÄÄÄÄÅÄ0ÄÄÄÄÄÄÄÄÄÄÄÄÄÄÅÄ2ÄÄÄÄ2ÄÄ2ÄÄÄÄÄÄÄ´³
A³Ã*ÄÄÄ0ÄÄÄÄÄÄ0ÄÄÄ0ÄÄÄ0ÄÅÄ3ÄÄÄÄÄ3ÄÄÄ3ÄÄ2ÄÅÄ2ÄÄÄÄÄ2ÄÄ2ÄÄÄÄÄÅÄ3ÄÄÄÄ3ÄÄ3ÄÄÄ0ÄÄ*´³
EÀÁÄÄÄÄÄÄÄÄÄÄÄÄÄÄÄÄÄÄÄÄÄÁÄÄÄÄÄÄÄÄÄÄÄÄÄÄÄÄÁÄ3ÄÄÄÄÄ3ÄÄ3ÄÄ(0)ÁÄÄÄÄÄÄÄÄÄÄÄÄÄÄÄÄÄÁÙ
*Gtr.1 (clean elec.) Doubled by acous. gtr. simile.
Yeah they really want you they really want you they really do
Yeah they really want you they really want you and I do too
 ACmaj7GCmaj7
eÚÂÄÄÄÄÄÄÄÄÄÄÄÄÄÄÄÄÄÄÄÄÄÂÄÄÄÄÄÄÄÄÄÄÄÄÄÄÄÄÂÄÄÄÄÄÄÄÄÄÄÄÄÄÄÄÄÂÄÄÄÄÄÄÄÄÄÄÄÄÄÄÄÄÄ¿
B³Ã*ÄÄ(2)ÄÄÄÄ(2)Ä(2)ÄÄÄÄÅÄ0ÄÄÄÄÄ0ÄÄÄ0ÄÄÄÄÅÄ0ÄÄÄÄÄÄÄÄÄÄÄÄÄÄÅÄ0ÄÄÄÄ0ÄÄ0ÄÄÄÄÄÄ*´³ ³³
G³ÃÄÄÄÄ2ÄÄÄÄÄÄ2ÄÄÄ2ÄÄÄÄÄÅÄ0ÄÄÄÄÄ0ÄÄÄ0ÄÄÄÄÅÄ0ÄÄÄÄÄÄÄÄÄÄÄÄÄÄÅÄ0ÄÄÄÄ0ÄÄ0ÄÄÄÄÄÄÄ´³
D³ÃÄÄÄÄ2ÄÄÄÄÄÄ2ÄÄÄ2ÄÄÄ2ÄÅÄ2ÄÄÄÄÄ2ÄÄÄ2ÄÄÄÄÅÄ0ÄÄÄÄÄÄÄÄÄÄÄÄÄÄÅÄ2ÄÄÄÄ2ÄÄ2ÄÄÄÄÄÄÄ´³
A³Ã*ÄÄÄ0ÄÄÄÄÄÄ0ÄÄÄ0ÄÄÄ0ÄÅÄ3ÄÄÄÄÄ3ÄÄÄ3ÄÄ2ÄÅÄ2ÄÄÄÄÄ2ÄÄ2ÄÄÄÄÄÅÄ3ÄÄÄÄ3ÄÄ3ÄÄÄ0ÄÄ*´³
EÀÁÄÄÄÄÄÄÄÄÄÄÄÄÄÄÄÄÄÄÄÄÄÁÄÄÄÄÄÄÄÄÄÄÄÄÄÄÄÄÁÄ3ÄÄÄÄÄ3ÄÄ3ÄÄ(0)ÁÄÄÄÄÄÄÄÄÄÄÄÄÄÄÄÄÄÁÙ
Pre-chorus (last time) To Coda @
(take repeats)
I want to be the girl with the most cake
I love him so much it just turns to hate
(He only loves those things because he love to see them break)
I fake it so real I am beyond fake
Elec. only!
    A                  Cmaj7    G-------------  *ÄÄÄÄÄÄÄÄÄÄÄÄÄÄÄÄÄÄÄÄ¿

eÚÂÄÄÄÄÄÄÄÄÄÄÄÄÄÄÄÄÄÄÄÄÄÄÄÄÄÄÄÄ(3)ÂÄÄÄÄÄÄÄÄÄÂÄÄÄÄÄÄ3ÄÄ3ÄÄ3ÄÄ3ÄÄ3ÄÄÄÄÄÄÄÄÄÄÄÄ¿
B³Ã*ÄÄ(2)ÄÄÄ(2)Ä(2)(2)Ä0ÄÄ0ÄÄÄÄ(3)ÅÄÄÄÄÄÄÄÄÄÅÄÄÄ3ÄÄ3ÄÄ3ÄÄ3ÄÄ3ÄÄ3ÄÄÄÄÄÄÄÄÄÄÄ*´³ ³³
G³ÃÄÄÄÄ2ÄÄÄÄÄ2ÄÄÄ2ÄÄ2ÄÄ0ÄÄ0ÄÄÄÄ(0)ÅÄÄÄÄÄÄÄÄÄÅÄÄÄ0ÄÄ0ÄÄ0ÄÄ0ÄÄ0ÄÄ0ÄÄ0ÄÄÄÄÄÄÄÄÄ´³
D³ÃÄÄÄÄ2ÄÄÄÄÄ2ÄÄÄ2ÄÄ2ÄÄ2ÄÄ2ÄÄÄÄ(0)ÅÄÄÄÄÄÄÄÄÄÅÄÄÄ0ÄÄ0ÄÄ0ÄÄ0ÄÄ0ÄÄ0ÄÄ0ÄÄÄÄÄÄÄÄÄ´³
A³Ã*ÄÄÄ0ÄÄÄÄÄ0ÄÄÄ0ÄÄ0ÄÄ3ÄÄ3ÄÄ2Ä(2)ÅÄÄÄÄÄÄÄÄÄÅÄÄÄÄÄÄÄÄÄ2ÄÄ2ÄÄ2ÄÄ2ÄÄ2ÄÄÄÄÄÄÄÄ*´³
EÀÁÄÄÄÄÄÄÄÄÄÄÄÄÄÄÄÄÄÄÄÄÄÄÄÄÄÄÄÄ(3)ÁÄÄÄÄÄÄÄÄÄÁÄÄÄÄÄÄÄÄÄÄÄÄ3ÄÄ3ÄÄ3ÄÄ3ÄÄÄÄÄÄÄÄÄÁÙ
* Play 3 times! * (Sing lyrics in parentheses 2nd time of 2nd pre-chorus.)
Chorus
And someday you will ache like I ache
Elec. only!
    A                  Cmaj7    G-------------  *ÄÄÄÄÄÄÄÄÄÄÄÄÄÄÄÄÄÄÄÄ¿

eÚÂÄÄÄÄÄÄÄÄÄÄÄÄÄÄÄÄÄÄÄÄÄÄÄÄÄÄÄÄ(3)ÂÄÄÄÄÄÄÄÄÄÂÄÄÄÄÄÄ3ÄÄ3ÄÄ3ÄÄ3ÄÄ3ÄÄÄÄÄÄÄÄÄÄÄÄ¿
B³Ã*ÄÄ(2)ÄÄÄ(2)Ä(2)(2)Ä0ÄÄ0ÄÄÄÄ(3)ÅÄÄÄÄÄÄÄÄÄÅÄÄÄ3ÄÄ3ÄÄ3ÄÄ3ÄÄ3ÄÄ3ÄÄÄÄÄÄÄÄÄÄÄ*´³ ³³
G³ÃÄÄÄÄ2ÄÄÄÄÄ2ÄÄÄ2ÄÄ2ÄÄ0ÄÄ0ÄÄÄÄ(0)ÅÄÄÄÄÄÄÄÄÄÅÄÄÄ0ÄÄ0ÄÄ0ÄÄ0ÄÄ0ÄÄ0ÄÄ0ÄÄÄÄÄÄÄÄÄ´³
D³ÃÄÄÄÄ2ÄÄÄÄÄ2ÄÄÄ2ÄÄ2ÄÄ2ÄÄ2ÄÄÄÄ(0)ÅÄÄÄÄÄÄÄÄÄÅÄÄÄ0ÄÄ0ÄÄ0ÄÄ0ÄÄ0ÄÄ0ÄÄ0ÄÄÄÄÄÄÄÄÄ´³
A³Ã*ÄÄÄ0ÄÄÄÄÄ0ÄÄÄ0ÄÄ0ÄÄ3ÄÄ3ÄÄ2Ä(2)ÅÄÄÄÄÄÄÄÄÄÅÄÄÄÄÄÄÄÄÄ2ÄÄ2ÄÄ2ÄÄ2ÄÄ2ÄÄÄÄÄÄÄÄ*´³
EÀÁÄÄÄÄÄÄÄÄÄÄÄÄÄÄÄÄÄÄÄÄÄÄÄÄÄÄÄÄ(3)ÁÄÄÄÄÄÄÄÄÄÁÄÄÄÄÄÄÄÄÄÄÄÄ3ÄÄ3ÄÄ3ÄÄ3ÄÄÄÄÄÄÄÄÄÁÙ
* Play 4 times! *
D.S. $ al Coda
And someday you will ache like I ache
    A5                 Cmaj7    G-------------------------------------------

eÚÄÄÄÄÄÄÄÄÄÄÄÄÄÄÄÄÄÄÄÄÄÄÄÄÄÄÄÄÄÄ3ÄÂÄÄÄÄÄÄÄÄÄÂÄÄÄÄÄÄÄÄÄÄÄÄÄÄÄÄÄÄÄÄÄÄÄÄÄÄÄÄÄÄÄÄ¿
BÃÄÄÄÄÄÄÄÄÄÄÄÄÄÄÄÄÄÄÄÄÄ0ÄÄ0ÄÄÄÄÄ2ÄÅÄÄÄÄÄÄÄÄÄÅÄÄÄÄÄÄÄÄÄÄÄÄÄÄÄÄÄÄÄÄÄÄÄÄÄÄÄÄÄÄÄÄ´ ³³
GÃÄÄÄÄÄÄÄÄÄÄÄÄÄÄÄÄÄÄÄÄÄ0ÄÄ0ÄÄÄÄÄ0ÄÅÄÄÄÄÄÄÄÄÄÅÄÄÄÄÄÄÄÄÄÄÄÄÄÄÄÄÄÄÄÄÄÄÄÄÄÄÄÄÄÄÄÄ´
DÃÄÄÄÄÄ2ÄÄÄÄÄ2ÄÄÄ2ÄÄ2ÄÄ2ÄÄ2ÄÄÄÄÄ0ÄÅÄÄÄÄÄÄÄÄÄÅÄÄÄÄÄÄÄÄÄÄÄÄÄÄÄÄÄÄÄÄÄÄÄÄÄÄÄÄÄÄÄÄ´
AÃÄÄÄÄÄ0ÄÄÄÄÄ0ÄÄÄ0ÄÄ0ÄÄ3ÄÄ3ÄÄ2ÄÄ2ÄÅÄÄÄÄÄÄÄÄÄÅÄÄÄÄÄÄÄÄÄÄÄÄÄÄÄÄÄÄÄÄÄÄÄÄÄÄÄÄÄÄÄÄ´
EÀÄÄÄÄÄÄÄÄÄÄÄÄÄÄÄÄÄÄÄÄÄÄÄÄÄÄÄÄÄÄ3ÄÁÄÄÄÄÄÄÄÄÄÁÄÄÄÄÄÄÄÄÄÄÄÄÄÄÄÄÄÄÄÄÄÄÄÄÄÄÄÄÄÄÄÄÙ
@ Coda
Outro Chorus
And someday you will ache like I ache
Elec. only!
    A                  Cmaj7    G-------------  *ÄÄÄÄÄÄÄÄÄÄÄÄÄÄÄÄÄÄÄÄ¿

eÚÄÄÄÄÄÄÄÄÄÄÄÄÄÄÄÄÄÄÄÄÄÄÄÄÄÄÄÄÄ(3)ÂÄÄÄÄÄÄÄÄÄÂÄÄÄÄÄÄ3ÄÄ3ÄÄ3ÄÄ3ÄÄ3ÄÄÄÄÄÄÄÄÄÄÄÄÄ¿
BÃÄÄÄÄ(2)ÄÄÄ(2)Ä(2)(2)Ä0ÄÄ0ÄÄÄÄ(3)ÅÄÄÄÄÄÄÄÄÄÅÄÄÄ3ÄÄ3ÄÄ3ÄÄ3ÄÄ3ÄÄ3ÄÄÄÄÄÄÄÄÄÄÄÄÄ´ ³³
GÃÄÄÄÄÄ2ÄÄÄÄÄ2ÄÄÄ2ÄÄ2ÄÄ0ÄÄ0ÄÄÄÄ(0)ÅÄÄÄÄÄÄÄÄÄÅÄÄÄ0ÄÄ0ÄÄ0ÄÄ0ÄÄ0ÄÄ0ÄÄ0ÄÄÄÄÄÄÄÄÄÄ´
DÃÄÄÄÄÄ2ÄÄÄÄÄ2ÄÄÄ2ÄÄ2ÄÄ2ÄÄ2ÄÄÄÄ(0)ÅÄÄÄÄÄÄÄÄÄÅÄÄÄ0ÄÄ0ÄÄ0ÄÄ0ÄÄ0ÄÄ0ÄÄ0ÄÄÄÄÄÄÄÄÄÄ´
AÃÄÄÄÄÄ0ÄÄÄÄÄ0ÄÄÄ0ÄÄ0ÄÄ3ÄÄ3ÄÄ2Ä(2)ÅÄÄÄÄÄÄÄÄÄÅÄÄÄÄÄÄÄÄÄ2ÄÄ2ÄÄ2ÄÄ2ÄÄ2ÄÄÄÄÄÄÄÄÄÄ´
EÀÄÄÄÄÄÄÄÄÄÄÄÄÄÄÄÄÄÄÄÄÄÄÄÄÄÄÄÄÄ(3)ÁÄÄÄÄÄÄÄÄÄÁÄÄÄÄÄÄÄÄÄÄÄÄ3ÄÄ3ÄÄ3ÄÄ3ÄÄÄÄÄÄÄÄÄÄÙ
And someday you will ache like I ache
Elec. only!
A Cmaj7 *ÄÄÄÄÄÄÄÄÄÄÄÄÄÄÄÄÄÄÄÄÄÄÄÄÄÄÄÄÄÄÄÄÄÄÄÄÄÄÄÄÄ¿
eÚÂÄÄÄÄÄÄÄÄÄÄÄÄÄÄÄÄÄÄÄÄÄÄÄÄÄÄÄÄ(3)ÂÄÄÄÄÄÄÄ3ÄÄÄ3ÄÄÄÄÄÂÄÄÄÄÄÄÄÄÄÄÄÄ3ÄÄ3ÄÄ3ÄÄÄÄ¿
B³Ã*ÄÄ(2)ÄÄÄ(2)Ä(2)(2)Ä0ÄÄ0ÄÄÄÄ(3)ÅÄÄÄÄÄÄÄ3ÄÄÄ3ÄÄÄ3ÄÅÄÄÄÄÄÄÄÄ3ÄÄÄ3ÄÄ3ÄÄ3ÄÄÄ*´³ ³³
G³ÃÄÄÄÄ2ÄÄÄÄÄ2ÄÄÄ2ÄÄ2ÄÄ0ÄÄ0ÄÄÄÄ(0)ÅÄÄÄÄÄÄÄ0ÄÄÄ0ÄÄÄ0ÄÅÄÄÄÄÄ0ÄÄ0ÄÄÄ0ÄÄ0ÄÄ0ÄXÄÄ´³
D³ÃÄÄÄÄ2ÄÄÄÄÄ2ÄÄÄ2ÄÄ2ÄÄ2ÄÄ2ÄÄÄÄ(0)ÅÄ0ÄÄÄÄÄÄÄÄÄ0ÄÄÄ0ÄÅÄ0ÄÄÄ0ÄÄ0ÄÄÄ0ÄÄ0ÄÄ0ÄXÄÄ´³
A³Ã*ÄÄÄ0ÄÄÄÄÄ0ÄÄÄ0ÄÄ0ÄÄ3ÄÄ3ÄÄ2Ä(2)ÅÄ2ÄÄÄÄÄÄÄÄÄÄÄÄÄÄÄÅÄ2ÄÄÄÄÄÄÄÄÄÄ2ÄÄ2ÄÄ2ÄXÄ*´³
EÀÁÄÄÄÄÄÄÄÄÄÄÄÄÄÄÄÄÄÄÄÄÄÄÄÄÄÄÄÄ(3)ÁÄ3ÄÄÄÄÄÄÄÄÄÄÄÄÄÄÄÁÄ3ÄÄÄÄÄÄÄÄÄÄ3ÄÄ3ÄÄ3ÄXÄÄÁÙ
* Play 6 times simile! *
Someday you will ache like I ache
    A5                 Cmaj7    G-------------------------------------------

eÚÄÄÄÄÄÄÄÄÄÄÄÄÄÄÄÄÄÄÄÄÄÄÄÄÄÄÄÄÄÄ3ÄÂÄÄÄÄÄÄÄÄÄÄÄÄÄÄÄÄÄÄÄÄÄÄÄÄÄÄÄÄÄÄÄÄÄÄÄÄÄÄÄÄÄ¿
BÃÄÄÄÄÄÄÄÄÄÄÄÄÄÄÄÄÄÄÄÄÄ0ÄÄ0ÄÄÄÄÄ2ÄÅÄÄÄÄÄÄÄÄÄÄÄÄÄÄÄÄÄÄÄÄÄÄÄÄÄÄÄÄÄÄÄÄÄÄÄÄÄÄÄÄÄ´³ ³³
GÃÄÄÄÄÄÄÄÄÄÄÄÄÄÄÄÄÄÄÄÄÄ0ÄÄ0ÄÄÄÄÄ0ÄÅÄÄÄÄÄÄÄÄÄÄÄÄÄÄÄÄÄÄÄÄÄÄÄÄÄÄÄÄÄÄÄÄÄÄÄÄÄÄÄÄÄ´³
DÃÄÄÄÄÄ2ÄÄÄÄÄ2ÄÄÄ2ÄÄ2ÄÄ2ÄÄ2ÄÄÄÄÄ0ÄÅÄÄÄÄÄÄÄÄÄÄÄÄÄÄÄÄÄÄÄÄÄÄÄÄÄÄÄÄÄÄÄÄÄÄÄÄÄÄÄÄÄ´³
AÃÄÄÄÄÄ0ÄÄÄÄÄ0ÄÄÄ0ÄÄ0ÄÄ3ÄÄ3ÄÄ2ÄÄ2ÄÅÄÄÄÄÄÄÄÄÄÄÄÄÄÄÄÄÄÄÄÄÄÄÄÄÄÄÄÄÄÄÄÄÄÄÄÄÄÄÄÄÄ´³
EÀÄÄÄÄÄÄÄÄÄÄÄÄÄÄÄÄÄÄÄÄÄÄÄÄÄÄÄÄÄÄ3ÄÁÄÄÄÄÄÄÄÄÄÄÄÄÄÄÄÄÄÄÄÄÄÄÄÄÄÄÄÄÄÄÄÄÄÄÄÄÄÄÄÄÄÁÙ
ritard
*That's all, folks! And if you want any other songs tabbed, write to:
Jessi Liem
16100 W 153rd Terr
Olathe, KS 66062
or send E-mail to Zypher. Thankz!
Artist: Hole
Song: Doll Parts(album live throug this)
Tabbed by: John Leadman
The Cmaj7 is occasionally played (x320xx) and
the G is sometimes (3200xx). I think this is sometimes in the
first verse, but not in the others.
CHORDS:
 EADGBE
   A5    (x022xx)
Cmaj7 (x3200x)
G (32000x)
G* (3x0033) or (320003)
The chords in the first 2 lines of the verses are
played something like this:
 A5Cmaj7GCmaj7
   E|----------------------------------------------|
   B|-------------(0)----------(0)----------(0)----|  The notes in ( )
   G|-2------2-2-2-0------0-0---0------0-0---0-----|  are sometimes
   D|-2------2-2-2-2------2-2---0------0-0---2-----|  heard, but not
   A|-0------0-0-0-3------3-3-2-2------2-2---3-----|  always.
   E|---------------------------3------3-3-0-------|

The last 2 lines in each verse are just strummed.
VERSE 1:
 A5A5Cmaj7Cmaj7GGCmaj7Cmaj7
     I am          doll eyes         doll mouth         doll legs 
 A5A5Cmaj7Cmaj7GGCmaj7Cmaj7
     I am          doll arms         big veins         dog beg 
 A5Cmaj7GCmaj7
    Yeah they really want you, they really want you, they really do
 A5Cmaj7GCmaj7
    Yeah they really want you, they really want you, and I do too
The chords in the chorus are played
something like this:
A5 Cmaj7 G G*
   E|------------------------------------3-3-3-3-3-3--|
   B|----------0-0-0--0------------------3-3-3-3-3-3--|
   G|--2---2-2-0-0-0--0------------------0-0-0-0-0-0--|
   D|--2---2-2-2-2-2--0------------------0-0-0-0-0-0--|
   A|--0---0-0-3-3-3--2------------------x-x-x-x-x-x--|
   E|-----------------3------------------3-3-3-3-3-3--|

CHORUS:
 stop
   A5          Cmaj7  G                 G*
I want to be the girl with the most cake
 stop
   A5       Cmaj7  G                    G*
I love him so much it just turns to hate
 stop
   A5       Cmaj7 G               G*
I fake it so real I am beyond fake
 stop
   A5     Cmaj7  G                   G*
And some day you will ache like I ache
 stop
   A5     Cmaj7  G                   G*
And some day you will ache like I ache
 stop
   A5     Cmaj7  G                   G*
And some day you will ache like I ache
 stop
   A5     Cmaj7  G                   G*
And some day you will ache like I ache
 stop
   A5  Cmaj7  G  
Some day you will ache like I ache
 play like verse 1
   VERSE 2:  
 -
   I am, doll parts, bad skin, doll heart
It stands, for knife, for the rest, of my life
Yeah they really want you, they really want you, they really do
Yeah they really want you, they really want you, but I do too
CHORUS:
 stop
   A5          Cmaj7  G                 G*
I want to be the girl with the most cake
 stop
   A5        Cmaj7       G                                   G*
He only loves those things because he loves to see them break
 stop
   A5       Cmaj7 G               G*
I fake it so real I am beyond fake
 stop
   A5     Cmaj7  G                   G*
And some day you will ache like I ache
A5 Cmaj7 G G*
And some day you will ache like I ache
A5 Cmaj7 G G*
And some day you will ache like I ache
OUTRO:
A5 Cmaj7 G G*
And some day you will ache like I ache
A5 Cmaj7 G G*
And some day you will ache like I ache
A5 Cmaj7 G G*
And some day you will ache like I ache
A5 Cmaj7 G G*
And some day you will ache like I ache
 stop
   A5  Cmaj7  G  
Some day you will ache like I ache


A A5 Cmaj7 G
variations - click chord images
Transpose chords:
Tuning:
Cool service:
View: Size:
A  A  A
Rating:
Layout:
  • Currently 3.2/5 Stars.
  • 1
  • 2
  • 3
  • 4
  • 5
 
Accuracy:
  • Currently 3/5 Stars.
  • 1
  • 2
  • 3
  • 4
  • 5
 
click stars to rate
Chordie recommends:
Get acoustic guitar lessons and electric guitar lessons at JamPlay.com
Songbook:
Login to add this song to your songbook
Support the artist
Preview/buy this song
MSN Music
Why this non-profit ad?

 
login to add comments/video/corrections