Gutless

Hole


GUTLESS - played with distortion unless noted
Guitar 1 plays entire riff once, and when you see a "*", guitar 2 plays joins in and plays that part clean. After that, both guitars play entire riff with distortion and guitar 2 plays the "*" part clean too.
INTRO/VERSE
1]---------------------------------------------------*3-3-3-3-3*-] 2]-2-2-----------------2-2-2-2-2-2-2-----------------*0-0-0-0-0*-] 3]-2-2-3-3-------------2-2-2-2-2-2-2-3-3-------------*0-0-0-0-0*-] 4]-2-2-3-3-3-3-3-3-3-3-2-2-2-2-2-2-2-3-3-3-3-3-3-3-3-*0-0-0-0-0*-] x6 5]-0-0-1-1-3-3-3-3-3-3-0-0-0-0-0-0-0-1-1-3-3-3-3-3-3-*2-2-2-2-2*-] 6]---------1-1-0-1-0-0-------------------1-1-0-1-0-0-*3-3-3-3-3*-]
CHORUS
1]---------------] 2]-2-2-----------] 3]-2-2-----------] 4]-2-2-3-3-3-3-3-] x3 5]-0-0-3-3-3-3-3-] 6]-----1-1-1-1-1-]
1]---3---3-3-] 2]-2-0-2-0-0-] 3]-2-0-2-0-0-] 4]-2-0-2-0-0-] x1 5]-0-2-0-2-2-] 6]---3---3-3-]
1]---------------] 2]-2-2-----------] 3]-2-2-----------] 4]-2-2-3-3-3-3-3-] x3 5]-0-0-3-3-3-3-3-] 6]-----1-1-1-1-1-]
1]---3---3-3-] 2]-2-0-2-0-0-] 3]-2-0-2-0-0-] 4]-2-0-2-0-0-] x1 5]-0-2-0-2-2-] 6]---3---3-3-]
VERSE
1]---------------------------------------------------*3-3-3-3-3*-] 2]-2-2-----------------2-2-2-2-2-2-2-----------------*0-0-0-0-0*-] 3]-2-2-3-3-------------2-2-2-2-2-2-2-3-3-------------*0-0-0-0-0*-] 4]-2-2-3-3-3-3-3-3-3-3-2-2-2-2-2-2-2-3-3-3-3-3-3-3-3-*0-0-0-0-0*-] x4 5]-0-0-1-1-3-3-3-3-3-3-0-0-0-0-0-0-0-1-1-3-3-3-3-3-3-*2-2-2-2-2*-] 6]---------1-1-0-1-0-0-------------------1-1-0-1-0-0-*3-3-3-3-3*-]
CHORUS
1]---------------] 2]-2-2-----------] 3]-2-2-----------] 4]-2-2-3-3-3-3-3-] x3 5]-0-0-3-3-3-3-3-] 6]-----1-1-1-1-1-]
1]---3---3-3-] 2]-2-0-2-0-0-] 3]-2-0-2-0-0-] 4]-2-0-2-0-0-] x1 5]-0-2-0-2-2-] 6]---3---3-3-]
1]---------------] 2]-2-2-----------] 3]-2-2-----------] 4]-2-2-3-3-3-3-3-] x3 5]-0-0-3-3-3-3-3-]
6]-----1-1-1-1-1-]
1]---3---3-3-] 2]-2-0-2-0-0-] 3]-2-0-2-0-0-] 4]-2-0-2-0-0-] x1 5]-0-2-0-2-2-] 6]---3---3-3-]
BRIDGE
1]---------------------------------------------------] 2]-8-8-8-7-------------------------------------------] 3]---------7-7---------------------------------------] 4]-------------5-5-5-4-----5-5-5-4-------------------] x2 5]---------------------5-5---------5-5-4-5-----------] 6]-----------------------------------------5-5-5-5-5-]
CHORUS
1]---------------] 2]-2-2-----------] 3]-2-2-----------] 4]-2-2-3-3-3-3-3-] x3 5]-0-0-3-3-3-3-3-] 6]-----1-1-1-1-1-]
1]---3---3-3-] 2]-2-0-2-0-0-] 3]-2-0-2-0-0-] 4]-2-0-2-0-0-] x1 5]-0-2-0-2-2-] 6]---3---3-3-]
1]---------------] 2]-2-2-----------] 3]-2-2-----------] 4]-2-2-3-3-3-3-3-] x3 5]-0-0-3-3-3-3-3-] 6]-----1-1-1-1-1-]
1]---3---3-3-] 2]-2-0-2-0-0-] 3]-2-0-2-0-0-] 4]-2-0-2-0-0-] x1 5]-0-2-0-2-2-] 6]---3---3-3-]
1]---------------] 2]-2-2-----------] 3]-2-2-----------] 4]-2-2-3-3-3-3-3-] x3 Guitar 2 feeds back 5]-0-0-3-3-3-3-3-] 6]-----1-1-1-1-1-]
1]---3---3-3-] 2]-2-0-2-0-0-] 3]-2-0-2-0-0-] 4]-2-0-2-0-0-] x1 5]-0-2-0-2-2-] 6]---3---3-3-]
1]---------------] 2]-2-2-----------] 3]-2-2-----------] 4]-2-2-3-3-3-3-3-] x3 5]-0-0-3-3-3-3-3-] 6]-----1-1-1-1-1-]
1]---3---3-3-----] 2]-2-0-2-0-0-2-2-] 3]-2-0-2-0-0-2-2-] 4]-2-0-2-0-0-2-2-] x1 let last chord ring 5]-0-2-0-2-2-0-0-] 6]---3---3-3-----]














variations - click chord images
Transpose chords:
Tuning:
Cool service:
View: Size:
A  A  A
Rating:
Layout:
  • Currently 0/5 Stars.
  • 1
  • 2
  • 3
  • 4
  • 5
 
Accuracy:
  • Currently 0/5 Stars.
  • 1
  • 2
  • 3
  • 4
  • 5
 
click stars to rate
Chordie recommends:
Learn how to play guitar at JamPlay.com
Songbook:
Login to add this song to your songbook
Support the artist
Preview/buy this song
MSN Music
Why this non-profit ad?

 
login to add comments/video/corrections