Guitar Tabs, Chords and Lyrics


Alternative Girl    Home Grown



Band: Home Grown
Song: Alternative Girl
Tabbed: Matt Shaffer (dammit03@hotmail.com)
Posted: h0megr0wnkid

e| ---10-10-x-10-10-x-10--8---8-x--8-10-10--------------
B| ---10-10-x-10-10-x-10--8---8-x--8-10-10--------------
G| ---12-12-x-12-12-x-12--9---9-x--9-11-11--------------
D| ---12-12-x-12-12-x-12-10--10-x-10-12-12--------------
A| ---10-10-x-10-10-x-10-10--10-x-10-12-12--------------
E| ---------------8----8--8--10---10--------------------

  guitar 2
e| -3-3-x-3-3-x-3-3-x-3-5-5-----------------------------
B| -3-3-x-3-3-x-3-3-x-3-5-5-----------------------------
G| -4-4-x-4-4-x-5-5-x-5-7-7-----------------------------
D| -5-5-x-5-5-x-5-5-x-5-7-7-----------------------------
A| -5-5-x-5-5-x-3-3-x-3-5-5-----------------------------
E| -3-3-x-3-3-x-----------------------------------------

Verse
e| ------------------------------------------------------
B| ------------------------------------------------------
G| -4-4--------------------------------------------------
D| -5-5--------------------------------------------------
A| -5-5--------------------------------------------------
E| -3-3--------------------------------------------------

guitar 2
e| -10-10-10-10-8--8--8--10-10---------------------------
B| -10-10-10-10-8--8--8--10-10---------------------------
G| -11-11-11-11-10-10-10-12-12---------------------------
D| -12-12-12-12-10-10-10-12-12---------------------------
A| ------------------------------------------------------
E| ------------------------------------------------------


e| ------------------------------------------------------
B| ------------------------------------------------------
G| ---5-5-5-5-5-4-4-4-4-4-4-5-5-5-5-5-7-7-7-7-7-7--------
D| ---5-5-5-5-5-5-5-5-5-5-5-5-5-5-5-5-7-7-7-7-7-7--------
A| ---3-3-3-3-3-5-5-5-5-5-5-3-3-3-3-3-5-5-5-5-5-5--------
E| -------------3-3-3-3-3-3------------------------------


1---------------------------------------------------------
2---------------------------------------------------------
3------------------5----5h6p5------8-----5------6-----6---
4-----------5h6h8----6---------6-8---4/6---6/8----6h8-----
5------6h8----------------------------------------------6-
6-6h8-----------------------------------------------------

1---------------------------------------------------------------------------
2--------------16-----------------------16------------13^-------------------
3-13----13-15----15-----15--13----13-15----15-----15------13----------------
4----13-------------13---------13-------------13--------------13-11-10-6/8--
5---------------------------------------------------------------------------


Important: The song above is NOT stored on the Chordie server. The original song is hosted at www.xguitar.com. Chordie works as a search engine and provides on-the-fly formatting. Chordie does not index songs against artists/composers will. To remove this song please click here.

This song is displayed as text-only. Transposing and tuning is only available for chordpro-songs.

Login - add to songbook

Rating click stars to rate

Layout
Accuracy

SHARE PAGE  




You need to log in to post comments