Chordie logo

Face in the Crowd    Home Grown



Band:Home Grown
Song:Face In The Crowd
Tabbed by: J-Cool
Posted by:h0megr0wnkid

intro

e| --------------------------------------------------------
B| --------------------------------------------------------
G| ---5--------------------11-9----------------------------
D| ---5-5-5--3-3-3-3-------11-9----------------------------
A| ---3-5-5--3-3-3-3--------9-7----------------------------
E| -----3-3--0-1-0-1---------------------------------------

Ska/verse
e| --9--9--9--9--9----9--11-11-11-11-11--11-9--9--9--9--9--
B| --9--9--9--9--9----9--11-11-11-11-11--11-9--9--9--9--9--
G| --10-10-10-10-10---10-13-13-13-13-13--13-11-11-11-11-11-
D| --11-11-11-11-11---11-13-13-13-13-13--13-11-11-11-11-11-
A| --11-11-11-11-11---11-11-11-11-11-11--11-9--9--9--9--9--
E| --9--9--9--9--9----9------------------------------------

e| --9--11-11-11-9--11-------------------------------------
B| --9--11-11-11-9--11-------------------------------------
G| --11-13-13-13-10-12-----repeat--------------------------
D| --11-13-13-13-11-13-------------------------------------
A| --9--11-11-11-11-13-------------------------------------
E| --------------9--11-------------------------------------

  prechorus
e| --------------------------------------------------------
B| --------------------------------------------------------
G| -------------5-5----------------5-5-5-------------------
D| -3-3--3-3-3--5-5-5-5-5--3-3-3-3-5-5-5-5-5-5-5-5-5-5-----
A| -3-3--3-3-3--3-3-5-5-5--3-3-3-3-3-3-3-5-5-5-5-5-5-5-----
E| -1-1--1-1-1------3-3-3--1-1-1-1-------3-3-3-3-3-3-3-----

   Ska/slow1
e| --3--3--3--3--1--1--3--3--------------------------------
B| --3--3--3--3--1--1--3--3--------------------------------
G| --5--5--4--4--2--2--4--4--------------------------------
D| --5--5--5--5--3--3--5--5--------------------------------
A| --3--3--5--5--3--3--5--5--------------------------------
E| --------3--3--1--1--3--3--------------------------------

   solo
e| -----------------------------------------------------------
B| -----------------------------------------------------------
G| -5-5-7-9-7-5-2-0-0-4-7-5-4---5-5-7-9-10-12-10-10-12-9-10-9-
D| -----------------------------------------------------------
A| -----------------------------------------------------------
E| -----------------------------------------------------------

   slow 2
e| --1-1-1-1-3-3-3--------------------------------------------
B| --1-1-1-1-3-3-3--------------------------------------------
G| --2-2-2-2-5-5-4--------------------------------------------
D| --3-3-3-3-5-5-5--------------------------------------------
A| --3-3-3-3-3-3-5--------------------------------------------


Important: The song above is NOT stored on the Chordie server. The original song is hosted at www.xguitar.com. Chordie works as a search engine and provides on-the-fly formatting. Chordie does not index songs against artists/composers will. To remove this song please click here.

This song is displayed as text-only. Transposing and tuning is only available for chordpro-songs.

Login - add to songbook

Rating click stars to rate

Layout
Accuracy

SHARE PAGE  

You need to log in to post comments