Chordie logo


Impotency    Home Grown



-------------------------------------------------------------------------------
IMPOTENCY - Homegrown
-------------------------------------------------------------------------------

By:Shaun/Waterpolo1_@yahoo.com

Intro 3x once with A/B/C
e|--------------------------------------------------|
B|--------------------------------------------------|
G|-----------222xx2--------------------------222xx2-|
D|----7----7-222xx2----7---7-222xx-2----7----222xx2-|
A|-4h5--4h5--000xx0-4h5-4h5--222xx-2-4h5-4h7-000xx0-|
E|---------------------------000xx-0----------------|
Play above with these endings, one for each

A/C(no pm) B
e|-----------------|--------------------------------|
B|-pm^^^^^^--------|--------------------------------|
G|-9999999999999999|-99999999-11111111-9999---------|
D|-9999999999999999|--------------------------------|
A|-7777777777777777|-77777777--9-9-9-9-7777---------|
E|-----------------|--------------------------------|

Verse riff(bold)3x 1x
e|--------------------------------------|---------------------------------|
B|--------------------------------------|---------------------------------|
G|--------999999------------------------|--------999999---------------77--|
D|-777777-999999------------------------|-777777-999999---------------77--|
A|-777777-777777-4/5xx4/5xx4/5-5p4h5p4p0|-777777-777777-4/5xx4/5xx4/5-55--|
E|-555555-------------------------------|-555555--------------------------|

1x
e|---------------------------------------|
B|---------------------------------------|
G|---------------------------------------|
D|---------------------------------------|
A|-4/5xx4/5xx4/5xx-5p4h5p4p0-------------|
E|---------------------------------------|
Verse 4x(Impotency really sucks, don't know why I can't get it up...

Pre-Chorus 2x
e|---------------------------------------------------|
B|---------------------------------------------------|
G|------------77xxx777xxx-----------99xxx999---------|
D|-44xxx444xxx77xxx777xxx77xxx777xxx99xxx999---------|
A|-44xxx444xxx55xxx555xxx77xxx777xxx77xxx777---------|
E|-22xxx222xxx-----------55xxx555xxx-----------------|

Chorus 4x
e|----------------------------|3rd replace-----------|
B|----------------------------|-****** with----------|
G|--------999999-******-777777|111111111111----------|
D|-777777-999999-444444-777777|111111111111----------|
A|-777777-777777-444444-555555|-9-9-9-9-9-9----------|
E|-555555--------222222-------|----------------------|

Bold on 2nd chorus only
e|--------------------------------------------------------------------|
B|--------------------------------------------------------------------|
G|-^^----^^----^^----^^----^^-----then repeat verse, pre-chorus,------|
D|-777~~~777~~~777~~~777~~~777~~~~~~~~~-chorus and then go to bridge--|
A|-777~~~777~~~777~~~777~~~777~~~~~~~~~-------------------------------|
E|-555~~~555~~~555~~~555~~~555~~~~~~~~~-------------------------------|

Bridge
e|--------------------------------------------------------------------|
B|--------------------------------------------------------------------|
G|-----------7~~~/9999~~~~~------------7~~~~~-9999999999999999\---4~~~|
D|---4~~~~---7~~~/9999~~~~~---4~~~~~---7~~~~~-------------------5-4~~~|
A|-5-4~~~~-4-5~~~/7777~~~~~-5-4~~~~~-4-5~~~~~-7777777777777777\---2~~~|
E|---2~~~~--------------------2~~~~~----------------------------------|

Cont.
e|----------------------------------------|
B|----------------------------------------|
G|---7~~~-9999~~~----------77777777-------|
D|---7~~~-9999~~~---4~~~---77777777-------|
A|-4-5~~~-7777~~~-5-4~~~-4-55555555-------|
E|------------------2~~~------------------|

Pre-chorus 2x, start lyrics on 2nd
Chorus 3x, then end with
e|----------------------------------------|
B|----------------------------------------|
G|--------999999-------7-7-7--------------|
D|-777777-999999-4-4-4-7-7-7-7\-----------|
A|-777777-777777-4-4-4-5-5-5-7\-----------|
E|-555555--------2-2-2-------5\-----------|



Important: The song above is NOT stored on the Chordie server. The original song is hosted at www.xguitar.com. Chordie works as a search engine and provides on-the-fly formatting. Chordie does not index songs against artists/composers will. To remove this song please click here.

This song is displayed as text-only. Transposing and tuning is only available for chordpro-songs.

Login - add to songbook

Rating click stars to rate

Layout
Accuracy

SHARE PAGE  




You need to log in to post comments