Guitar Tabs, Chords and Lyrics


S.F.L.B.    Home Grown



-------------------------------------------------------------------------------
SFLB - Homegrown
-------------------------------------------------------------------------------

By:Jo l'Indien (punkska@caramail.com)

e|---------------------------------------------------------------------------|
B|---------------------------------------------------------------------------|
G|---------------------------------------------------------------------------|
D|-5-5-5-5>>7----------------------------------------------------------------|
A|-5-5-5-5>>7--xALOT---------------------------------------------------------|
E|-0-3-0-3>>5----------------------------------------------------------------|

partI
e|-------------------|
B|-------------------|
G|------9--11--------|
D|--11--9--11--9-----| play it on 1,3,5 times
A|--11--7---9--9-----|
E|---9---------7-----|

partII
e|---------------------|
B|---------------------|
G|------9--11----------|
D|--11--9--11--9-10-11-|
A|--11--7---9--9-10-11-|
E|---9---------7--8--9-| play it on 2,4,6 times

partIII
e|------------|
B|------------|
G|------------|
D|-9-10-11----|
A|-9-10-11----|first time mute the strings and the 2 other one let them ring
E|-7--8--9----|x3

pick slide then
partIV
e|----------------|
B|----------------|
G|----------------|
D|--11---9--7--9--|x4
A|--11---9--7--9--|
E|---9---7--5--7--|

partV
e|----------------|
B|----------------|
G|----------------|
D|--11---9--7--9--|same thing but palm-muted
A|--11---9--7--9--|x4
E|---9---7--5--7--|

partVI
e|---------|
B|---------|
G|---------|
D|--7---7--|
A|--7---7--|
E|--5---9--|

chorus
e|---------------------|
B|---------------------|
G|------9--11----------|
D|--11--9--11--9-10-11-|
A|--11--7---9--9-10-11-|
E|---9---------7--8--9-|x4
SF L B!



Important: The song above is NOT stored on the Chordie server. The original song is hosted at www.xguitar.com. Chordie works as a search engine and provides on-the-fly formatting. Chordie does not index songs against artists'/composers' will. To remove this song please click here.

This song is displayed as text-only. Transposing and tuning is only available for chordpro-songs.

Login - add to songbook

Rating click stars to rate

Layout
Accuracy

SHARE PAGE  




You need to log in to post comments