Chordie logo


The Reason    Hoobastank



Band: Hoobastank
Song: The Reason

Tabbed by Evan Bockover 

This song is in standard tuning.... the intro actually starts out with a piano playin single notes, which carries through both verses

Piano - E,C#,E,C#,A,B

Guitar 1 (Electric)
       
Verse 1 
e|--------------------|--------------------|--------------------|--------------------|--------------------|--------------------|--------------------|--------------------|
B|-------9--------9---|-------9--------9---|-------9--------9---|-------9--------9---|--------------------|--------------------|-------9--------9---|-------9--------9---|
G|--9-11---8-9-11---8-|--9-11---8-9-11---8-|--9-11---8-9-11---8-|--9-11---8-9-11---8-|-----8-9------8-9---|-----8-9------8-9---|--9-11---8-9-11---8-|--9-11---8-9-11---8-|
D|--------------------|--------------------|--------------------|--------------------|--11-----9-11-----9-|--11-----9-11-----9-|--------------------|--------------------|
A|--------------------|--------------------|--------------------|--------------------|--------------------|--------------------|--------------------|--------------------|
E|--------------------|--------------------|--------------------|--------------------|--------------------|--------------------|--------------------|--------------------|

e|--------------------|--------------------|--------------------|--------------------|-----------------11h12-|
B|--------------------|--------------------|--------------------|--------------------|-----------------------|
G|-----8-9------8-9---|-----8-9------8-9---|-----8-9------8-9---|-----8-9------8-9---|-----------------------|
D|--11-----9-11-----9-|--11-----9-11-----9-|--11-----9-11-----9-|--11-----9-11-----9-|-----------------------| 

Important: The song above is NOT stored on the Chordie server. The original song is hosted at www.xguitar.com. Chordie works as a search engine and provides on-the-fly formatting. Chordie does not index songs against artists/composers will. To remove this song please click here.

This song is displayed as text-only. Transposing and tuning is only available for chordpro-songs.

Login - add to songbook

Rating click stars to rate

Layout
Accuracy

SHARE PAGE  




You need to log in to post comments