Guitar Tabs, Chords and Lyrics


Running from an Angel   Hootie and The Blowfish

[D] Don't look a [Bm]gift horse in the [D]mouth   [Bm]   [A]
[D] Don't try and [Bm]tell me[D] what they're talking a[A]bout, [D]oh
Those things you're dealing with, you're living a lie
Everytime I see you it makes me wanna cry

(intro riff)

The times we laughed and talked, seems like yesterday
Then you let the white horse come and take you away
They came to get you it was coal black
The wheels were in motion, there was no turning back

  [A] Running from an [Bm]angel
  [A] Running to the [Bm]devil, [G]devil yeah

(intro riff)
Running from an angel
Running to the devil

I gave up on you a long time ago
Well, there's something I want you to know
Your lying and cheating really tore us apart
Please don't come home if you're gonna break my mama's heart

(chorus)

(intro riff)
Running from an angel
Running to the devil
Running, running, running
Don't make me cry again

(violin solo): | D | Bm | D | Bm A D | x3

(chorus)
............

Intro riff:
] ] ] ] ] ] ] ] ] ] ] ] ] ] ] ]
|-----------------|-------------------|-----------------|------------------|
|-----------------|-------------------|-----------------|-9----------------|
|-------9---------|-------------------|-------9---------|-9----------------|
|---9-9---11------|-9-11-11-9---------|---9-9---11------|---11-9-----------|
|/11--------------|-----------11--9---|/11--------------|--------11-9---7--|
|-----------------|-------------------|-----------------|------------------|

NB This is doubled an octave above by violin. You can copy this with an
octave pedal (as in Only Wanna Be With You) if you have one.

During the verses, the electric just strums the chords, but plays the last
bar of the intro riff over the D A D bar -"what they're talking about"

Solo:
Play this over the D chords in the solo- (just strum for the other chords)
] ] ] ]
|-------------------------------------|
|-------------------------------------|
|-------------------------------------|
|-------------------------------------|
|-9/11-11-11-11\9-9-9-9\7-7-7-7-------|
|-------------------------------------|

............

Important: The song above is NOT stored on the Chordie server. The original song is hosted at www.xguitar.com. Chordie works as a search engine and provides on-the-fly formatting. Chordie does not index songs against artists'/composers' will. To remove this song please click here.

Text color:
Chord color:
Chord grids: 
Font size:    
Page size: 

A Bm D G
variations - click chord images

Login - add to songbook

Transpose chords

Tuning

Rating click stars to rate

Layout
Accuracy

SHARE PAGE  




You need to log in to post comments