Guitar Tabs, Chords and Lyrics


Waitress    Hopesfall



Song: Waitress
Artist: Hopesfall
Tabbed by: tom (safe_in_numbers@hotmail.com)
Tuning: Drop D

Guitar 1

|-------------------------------------------------------------------------------------------------
|-------------------------------------------------------------------------------------------------
|-14-14-14-7-7-7-9-9-9-10-10-10-12-12-12-12-12-12-12-12-12-12-12-12-14-14-14-7-7-7-9-9-9-10-10-10-
|-------------------------------------------------------------------------------------------------
|-12-12-12-5-5-5-7-7-7-8--8--8--10-10-10-10-10-10-10-10-10-10-10-10-12-12-12-5-5-5-7-7-7-8---8--8-
|-------------------------------------------------------------------------------------------------

|-------------------------------------------------------------------------------------------------------
|-------------------------------------------------------------------------------------------------------
|-17-17-17-17-17-17-17-17-17-17-17-17-14-14-14-7-7-7-9-9-9-10-10-10-12-12-12-12-12-12-21-21-21-21-21-21-
|-------------------------------------------------------------------------------------------------------
|-15-15-15-15-15-15-15-15-15-15-15-15-12-12-12-5-5-5-7-7-7-8--8---8-10-10-10-10-10-10-19-19-19-19-19-19-
|-------------------------------------------------------------------------------------------------------

|-------------------------------------------------------
|-------------------------------------------------------
|-14-14-14-7-7-7-9-9-9-10-10-10-5-5-5-5-5-5-5-5-5-5-5-5-
|-------------------------------------------------------
|-12-12-12-5-5-5-7-7-7-8--8---8-3-3-3-3-3-3-3-3-3-3-3-3-
|-------------------------------------------------------

Verse play this 11 times then play the first two chords once then play it completely three times more

|---------
|---------
|---------
|-3-2-0-2-
|-3-2-0-2-
|-3-2-0-2-

Then play this fill
|------------------------------
|------------------------------
|-7-7-7-7-7-7-7-7-7-7-7-7------
|--------------------------3-2-
|-5-5-5-5-5-5-5-5-5-5-5-5--3-2-
|--------------------------3-2-

*Guitar is silent*

Section A
|------------------------
|------------------------ when it goes half time play the d octave instead of the big chord
|------------7-7-7-7-7-7-
|-3-2-0-2-0--5-5-5-5-5-5-
|-3-2-0-2-0--5-5-5-5-5-5-
|-3-2-0-2-0--5-5-5-5-5-5-

Section B
|--------------------------
|--------------------------
|-7-7-7~--9-9-9~--10-10-10~
|--------------------------
|-5-5-5~--7-7-7~--8--8--8~
|--------------------------

Section C
|--------------------------------------------------------------------------
|--------------------------------------------------------------------------
|-12-12-12-12-12-12-12-12--10-10-10-10-10-10-10-10-14-14-14-14-14-14-14-14~
|--------------------------------------------------------------------------
|-10-10-10-10-10-10-10-10--8--8--8--8--8--8---8--8-12-12-12-12-12-12-12-12~
|--------------------------------------------------------------------------

|--------------------------------------------------------------------------------------------------
|--------------------------------------------------------------------------------------------------
|-12-12-12-12-12-12-12-12--10-10-10-10-10-10-10-10-14-14-14-14-14-14-14-14-17-17-17-17-17-17-17-17-
|--------------------------------------------------------------------------------------------------
|-10-10-10-10-10-10-10-10---8--8--8-8--8--8---8--8-12-12-12-12-12-12-12-12-15-15-15-15-15-15-15-15-
|---------------------------------------------------------------------------------------------------



|-------------------------------------------------
|-------------------------------------------------
|-21-21-21-21-21-21-21-21-22-22-22-22-22-22-22-22-  play this 3 and a half times
|-------------------------------------------------
|-19-19-19-19-19-19-19-19-20-20-20-20-20-20-20-20-
|-------------------------------------------------

|---------------------------8-7---------          ---
|------------------8-0-0-7-------8-7----          ---
|-9-9-9-9-9-9-9-9-----------------------  end on  ---
|-9-9-9-9-9-9-9-9--------------------9--          -10
|-7-7-7-7-7-7-7-7-----------------------          -10
|---------------------------------------          -10

Pause

Into breakdown

|-------------------
|-------------------
|-11-11-11-11-11-11-
|-9--9--9--9--9---9-
|-------------------
|-------------------

Breakdown

|---------------------------------------------
|---------------------------------------------
|---------------------------11-11-11-11-11-11-
|-0--0--0--0--0-0--0-0-0-0--9--9--9---9--9--9-
|-0--0--0--0--0-0--0-0-0-0--------------------
|-0--0--0--0--0-0--0-0-0-0--------------------

|----------
|----------
|-4/5--7/9-
|----------
|-2/3--5/7-
|----------

Quiet Section - With delay

|----------------------------------------------
|--------------------------5/8-8h10---5/8-8h10-
|-0h4-7-5~----0h4-7-5~-------------------------
|----------------------------------------------
|----------------------------------------------
|----------------------------------------------

On repeat a third guitar plays

|-------------12~---------------12~--------------------12-15~-----------------12-15~-
|-----13-----------------13-------------15---------13------------15--------13--------
|-14-----14----------14-----14--------------14-12-------------------14-12------------
|------------------------------------------------------------------------------------
|------------------------------------------------------------------------------------
|------------------------------------------------------------------------------------

Ending

|-------------------------------
|-------------------------------
|-12-12-12-12-12-12-12-12-12-11\
|-10-10-10-10-10-10-10-10-10-10\
|-10-10-10-10-10-10-10-10-10-10\
|-10-10-10-10-10-10-10-10-10-10\

Guitar 2

Intro

|----------------------------------------------------------------------------------------------------
|----------------------------------------------------------------------------------------------------
|-------------------------------------10-10-10-9-9-9-10-10-10-12-12-12-10-10-10-9-9-9-10-10-10-9-9-9-
|-10-10-10-10-10-10-10-10-10-10-10-10-8---8-8--8-8-8--8--8--8--8--8--8--7--7--7-7-7-7--7--7--7-7-7-7-
|-0---0--0--0--0--0--0--0--0--0--0--0-8---8-8--8-8-8--8--8--8--8--8--8--7--7--7-7-7-7--7--7--7-7-7-7-
|-0---0--0--0--0--0--0--0--0--0--0--0-8---8-8--8-8-8--8--8--8--8--8--8--7--7--7-7-7-7--7--7--7-7-7-7-

Continued

|----------------------------------------------------------------------------------------------------------
|----------------------------------------------------------------------------------------------------------
|----------------------------------------------------------------------------------10-10-10-9-9-9-10-10-10-
|--------------------------------------------10-10-10-10-10-10-10-10-10-10-10-10-10-8--8--8-8-8-8--8--8--8-
|------8p7p0-----8p7p0----8p7p0------8p7p0----0--0--0--0--0--0--0--0--0--0--0--0-0--8--8--8-8-8-8--8--8--8-
|-8p7--------8p7-------8p7--------8p7---------0--0--0--0--0--0--0--0--0--0--0--0-0--8--8--8-8-8-8--8--8--8-

|----------------------------------------------------------------------
|----------------------------------------------------------------------
|-12-12-12-10-10-10-9-9-9-10-10-10-9-9-9-------------------------------
|--8--8--8--7--7--7-7-7-7--7--7--7-7-7-7-8-8-8-8-8-8-10-10-10-10-10-10-
|--8--8--8--7--7--7-7-7-7--7--7--7-7-7-7-8-8-8-8-8-8-10-10-10-10-10-10-
|--8--8--8--7--7--7-7-7-7--7--7--7-7-7-7-8-8-8-8-8-8-10-10-10-10-10-10-

Verse same as guitar 1

fill

|-------------------------------------
|-------------------------------------
|-------------------------------------
|---------------------------------3-2-
|---------------------------------3-2-
|-3p0-3p0-3p0-3p0-3p0-3p0-3p0-3p0-3-2-

*guitar 2 is silent*

Section A same as guitar 1

Section B
|-----------------------------------
|-----------------------------------
|-7-7-7~--9-9-9~--10-10-10~---------
|-5-5-5~--7-7-7~--8---8--8~---------
|-5-5-5~--7-7-7~--8---8--8~-----8-7-
|-5-5-5~--7-7-7~--8---8--8~--0------

Section C
|-------------------------------------------------------------------------
|-------------------------------------------------------------------------
|------------------------------------------------------10-10-10-9-9-9-7-7-
|-5-5-5-5-5-5-5-5-8-8-8-8-8-8-8-7-7-7-7-7-7-7-7-0-0-0---------------------
|-5-5-5-5-5-5-5-5-8-8-8-8-8-8-8-7-7-7-7-7-7-7-7-0-0-0---8--8--8-7-7-7-5-5-
|-5-5-5-5-5-5-5-5-8-8-8-8-8-8-8-7-7-7-7-7-7-7-7-0-0-0---------------------

|-----------------------------------3-----2----
|------------------5p0-0-3-0-0-1p0------0----0-
|----------------------------------------------
|-8-8-8-8-8-8-8-8------------------------------
|-8-8-8-8-8-8-8-8------------------------------
|-8-8-8-8-8-8-8-8------------------------------

Into Breakdown is same as guitar 1 only guitar 2 joins in halfway through.

Breakdown same as guitar 1

|---------
|---------
|---------
|-0-2-7-5-
|-0-2-7-5-
|-0-2-7-5- then do that clean



Important: The song above is NOT stored on the Chordie server. The original song is hosted at www.xguitar.com. Chordie works as a search engine and provides on-the-fly formatting. Chordie does not index songs against artists'/composers' will. To remove this song please click here.

This song is displayed as text-only. Transposing and tuning is only available for chordpro-songs.

Login - add to songbook

Rating click stars to rate

Layout
Accuracy

SHARE PAGE  




You need to log in to post comments