Guitar Tabs, Chords and Lyrics


Paper Thin    Hot Water Music



Intro
e|---------------------------------------------------|
B|---------------------------------------------------|
G|----------2-------2----------2-------2----------2--|
D|-------2------------------2------------------2-----|
A|--0-0--------0-0-----0-0--------0-0-----0-0--------|
E|---------------------------------------------------|

Verse
e|--------------------------------------------------------------|
B|--------------------------------------------------------------|
G|----------2-------2----------2-------2----------2----------2--|
D|--------------------------2-----------------------------2-----|
A|--0-0--------0-0-----0-0--------0-0-----0-0--------0-0--------|
E|--------------------------------------------------------------|

Chorus
e|------------------------------------------------------------------------|
B|------------------------------------------------------------------------|
G|------------------------------------------------------------------------|
D|---------------6-6-6---------------6-6-6-6-6-6--2-2-2-2-2--4-4-4-4-4-4--|
A|--7-7-7-7-7-7--4-4-4--2-2-2-2-2-2--4-4-4-4-4-4--0-0-0-0-0--2-2-2-2-2-2--|
E|--5-5-5-5-5-5---------0-0-0-0-0-0---------------------------------------|

e|------------------------------------------------------------------------|
B|------------------------------------------------------------------------|
G|------------------------------------------------------------------------|
D|-----------------------------------6-6-6-6-6-6--------------------------|
A|--7-7-7-7-7-7--4-4-4--2-2-2-2-2-2--4-4-4-4-4-4--6-6-6-6-6--7-7-7-7-7-7--|
E|--5-5-5-5-5-5--2-2-2--0-0-0-0-0-0---------------4-4-4-4-4--5-5-5-5-5-5--|

(2nd Time Only)
e|---------------------------------------|
B|---------------------------------------|
G|---------------------------------------|
D|--6-6-6-6-6-6--------------------------|
A|--4-4-4-4-4-4--6-6-6-6-6--7-7-7-7-7-7--|
E|---------------4-4-4-4-4--5-5-5-5-5-5--|

Bridge
e|------------------------------------------------------------------------------|
B|------------------------------------------------------------------------------|
G|--9/11--11/13--13/14-14-14\13--11-11\9--9/11--11/13--13/14-14-14\13--11-11\9--|
D|------------------------------------------------------------------------------|
A|--7/-9---9/11--11/12-12-12\11---9--9\7--7/-9---9/11--11/12-12-12\11---9--9\7--|
E|------------------------------------------------------------------------------|

e|-------------------------------------------------------------------------|
B|-------------------------------------------------------------------------|
G|--14-14\13-13\11-11--14-14\13-13--------14-14\13-13\11-11--14-14\13-13\--|
D|-------------------------------------------------------------------------|
A|--12-12\11-11\-9--9--12-12\11-11\11-11--12-12\11-11\-9--9--12-12\11-11\--|
E|----------------------------------9--9-----------------------------------|

e|----------------------------------------|
B|----------------------------------------|
G|--14-14\13-13/14-14\13-13/14-14\13-13/--|
D|----------------------------------------|
A|--12-12\11-11/12-12\11-11/12-12\11-11/--|
E|----------------------------------------|

Outro
e|-----------------------------------------------------------------|
B|-----------------------------------------------------------------|
G|--13-13-13-13-13-13/14-14-14--13-13-13-13-13-13/14-14-14---------|
D|-----------------------------------------------------------------|
A|--11-11-11-11-11-11/12-12-12--11-11-11-11-11-11/12-12-12--2~~~~--|


Important: The song above is NOT stored on the Chordie server. The original song is hosted at www.xguitar.com. Chordie works as a search engine and provides on-the-fly formatting. Chordie does not index songs against artists'/composers' will. To remove this song please click here.

This song is displayed as text-only. Transposing and tuning is only available for chordpro-songs.

Login - add to songbook

Rating click stars to rate

Layout
Accuracy

SHARE PAGE  




You need to log in to post comments