Guitar Tabs, Chords and Lyrics


The Sense    Hot Water Music



-=Intro=-
e-----------|-------------------|
B-----------|-------------------|
G-7~-777----|-7-9-10------------|
D-7~-777-55-|-x-x-x----10-8-7-5-|
A-5~-555-55-|-5-7-8----x--x-x-x-|
E--------33-|----------8~-6-5-3-|

e-------------------------------------------11h14p11h14p11h14-14^--
B-------------------------------13^13^13^13^-----------------------
G-12^~-12^-12p10----10---10-12^------------------------------------
D----------------12----12------------------------------------------
A------------------------------------------------------------------
E------------------------------------------------------------------

-=Verse=-

  x7  x7  x7 x7
e---|---|---|----
B---|---|---|----
G-7-|---|---|----
D-7-|-7-|-5-|-7--
A-5-|-7-|-5-|-7--
E---|-5-|-3-|-5--

-=Chorus=-

(and i... read the writing on teh wall)
e---------------
B---------------
G-7-4---4-------
D-7-4-4-4-5-----
A-5-2-4-2-5-----
E-----2---3-----

(I... see is "Who has lost the sense?")
e---------------------------------------
B---------------------------------------
G-7755/77----7/107---77---------------
D-7755/77-00-7/107-0-77---------------
A-5533/55-00-5/8 5-0-55---------------
E---------------------------------------

someone tab the solo. i gave up on it

if you listen to hot water music you will hear the little add-ons,


Important: The song above is NOT stored on the Chordie server. The original song is hosted at www.xguitar.com. Chordie works as a search engine and provides on-the-fly formatting. Chordie does not index songs against artists'/composers' will. To remove this song please click here.

This song is displayed as text-only. Transposing and tuning is only available for chordpro-songs.

Login - add to songbook

Rating click stars to rate

Layout
Accuracy

SHARE PAGE  




You need to log in to post comments