Guitar Tabs, Chords and Lyrics


Trusty Chords    Hot Water Music



Hot Water Music - Trusty Chords
Tabbed by: Carlson2000

Intro/Verse
===========
Gtr1.
e|---------------------|
B|---------------------|
G|--77---------44------|  6x
D|--77---------44------|
A|--55---------22------|
E|---------------------|

Gtr2. (Begins after guitar 1 does intro 2 times round)
e|---------------|
B|-----5-7-5-----|
G|-----------7---|    x4
D|---------------|
A|---------------|
E|-------------- |

Bridge
======
Both Guitars
e|---------------------------------------|
B|---------------------------------------|
G|---------------------------------------|
D|---99999999--77777777--55555555--------|
A|---99999999--77777777--55555555--------|
E|---77777777--55555555--33333333--------|

Interlude
=========
e|-------------------------------------------------|
B|-------------------------------------------------|
G|---77777777--------------------------------------|
D|---77777777--99999999--77777777--55555555--------|
A|---55555555--99999999--77777777--55555555--------|
E|-------------77777777--55555555--33333333--------|

Outro
=====
e|---------------------------------------------------------|
B|---------------------------------------------------------|
G|---------------------------------------------------------|
D|---99999999--77777777--55555555--77777777--55555555------|
A|---99999999--77777777--55555555--77777777--55555555------|
E|---77777777--55555555--33333333--55555555--33333333------|

Song Order
==========
Intro      x6
Bridge     x1
Verse      x6
Interlude  x2
Verse      x6
Outro      x1


Important: The song above is NOT stored on the Chordie server. The original song is hosted at www.xguitar.com. Chordie works as a search engine and provides on-the-fly formatting. Chordie does not index songs against artists'/composers' will. To remove this song please click here.

This song is displayed as text-only. Transposing and tuning is only available for chordpro-songs.

Login - add to songbook

Rating click stars to rate

Layout
Accuracy

SHARE PAGE  




You need to log in to post comments