Guitar Tabs, Chords and Lyrics


Just Don't Say You Lost It    Hot Water Music



Hot Water Music
Just Dont say you lost it

Intro/Verse 1 riff

e---------------------------------------
B---------------------------------------
G----2---2-----4---4--------------7---7-
D----2---2-----4---4----4---4-----7---7-
A-00-0-0-0--22-2-2-2----4---4--55-5-5-5-
E--------------------22-2-2-2-----------
PM--   -    --   -   --   -    --   -

Bridge

e-------------------------------------------
B-------------------------------------------
G----2---2-----4---4----------6^7(6)-6^7(6)-
D----2---2-----4---4----4---4---------------
A-00-0-0-0--22-2-2-2----4---4---------------
E--------------------22-2-2-2---------------
Pm--   -    --   -   --   -

Intro part 2
                     Guitar 2 plays D here
e----------------------------------
B----------------------------------
G-22222-44444--------6^7(6)-6^7(6)-
D-22222-44444-44444----------------
A-00000-22222-44444----------------
E-------------22222----------------

Back to Verse Riff and Bridge

Chorus

e---------------------------------------------------------
B---------------------------------------------------------
G-666666-66666-666666-666666------------------777777777777
D-xxxxxx-xxxxx-xxxxxx-xxxxxx-4444444444444444-777777777777
A-444444-44444-444444-444444-4444444444444444-555555555555
E----------------------------2222222222222222--------------
PM                           ----------------

Just bass, then

e----|--------------------|
B----|--------------------|
G-6~-|6^7(6)-6^7(6)-a lot-|
D----|--------------------|
A----|--------------------|
E----|--------------------|

Then Intro part 2

End with Outro

e--------------------------
B--------------------------
G-66666666-88888-11111111--
D-xxxxxxxx-xxxxx-x-x-x-x---
A-44444444-66666-9-9-9-9---


Important: The song above is NOT stored on the Chordie server. The original song is hosted at www.xguitar.com. Chordie works as a search engine and provides on-the-fly formatting. Chordie does not index songs against artists'/composers' will. To remove this song please click here.

This song is displayed as text-only. Transposing and tuning is only available for chordpro-songs.

Login - add to songbook

Rating click stars to rate

Layout
Accuracy

SHARE PAGE  




You need to log in to post comments