Guitar Tabs, Chords and Lyrics


Manual    Hot Water Music



-------------------------------------------------------------------------------
                        MANUAL - The Hot Water Music Band
-------------------------------------------------------------------------------

By: Aaron Bryant Krueger  e-mail kruege56@pilot.msu.edu

Intro     repeat first part
e|---------------------------------------------------------------------------|
B|---------------------------------------------------------------------------|
G|---------------------------------------------------------------------------|
D|--11--11-11-11-11-11-9-9-9-11--11-11-11-11-11-9-9-9-11--11-11-11-11-11-9-9-|
A|---------------------------------------------------------------------------|
E|---------------------------------------------------------------------------|

e|-------------------------------------------------|-------------------------|
B|-------------------------------------------------|-------------------------|
G|-------------9-------9------9----9--------6----6-|-------------------------|
D|--9-11-11-11---11-11---11-7---7----7-7-4----4----|-------------------------|
A|-------------------------------------------------|-4--4(5)4--4(5)4--4(5)4--|
E|-------------------------------------------------|-------------------------|

e|---------------------------------------------------------------------------|
B|---------------------------------------------------------------------------|
G|---------------------------------------------------------------------------|
D|---------------------------------------------------------------------------|
A|--4(5)4--------------------------------------------------------------------|
E|---------------------------------------------------------------------------|

Verse 1      go back to first part of intro
e|---------------------------------------------------------------------------|
B|---------------------------------------------------------------------------|
G|--6-----------------------7------------------------------------------------|
D|--6-------2-------4-------7------------------------------------------------|
A|--4-------2-------4-------5------------------------------------------------|
E|----------0-------2--------------------------------------------------------|

Verse 1
e|---------------------------------------------------------------------------|
B|---------------------------------------------------------------------------|
G|--------------4-----------6----------------------------------------9-----9-|
D|--4-----2-----4-----7-----6----6h7-6h7-6h7-6h7-6h7-6h7-6h7-6h7-6h7---6h7---|
A|--4-----2-----2-----7-----4------------------------------------------------|
E|--2-----0-----------5------------------------------------------------------|

Verse 1
       so your at war...
e|---------------------------------------------------------------------------|
B|---------------------------------------------------------------------------|
G|--6------------------------------------------------------------------------|
D|--6---------------------4h6p4--4h6p--4h6p----------------------------------|
A|--4------------------------------------------------------------------------|
E|---------------------------------------------------------------------------|

===============================================================================


Important: The song above is NOT stored on the Chordie server. The original song is hosted at www.xguitar.com. Chordie works as a search engine and provides on-the-fly formatting. Chordie does not index songs against artists'/composers' will. To remove this song please click here.

This song is displayed as text-only. Transposing and tuning is only available for chordpro-songs.

Login - add to songbook

Rating click stars to rate

Layout
Accuracy

SHARE PAGE  




You need to log in to post comments