Guitar Tabs, Chords and Lyrics


Our Own Way    Hot Water Music



Hot Water Music - Our Own Way
…..= palm mute
Intro (Guitar I) 0:00
|-------------------------------|----------------------|
|----------------------------- --|---------------------|
|------777777777777\0-x5---------|---------7777/999999-|
|-------------------------------|----------------------|
|-------------------------------|----------------------|
|-------------------------------|----------------------|

|-------------------------------|---------------------------------------------------
|-------------------------------|---------------------------------------------------
|--777777777777\0--(x3)-|--777777/99999----77777/10-10-10-10/12-12-12-(x2)-|
|-------------------------------|--------------------------------------------------
|-------------------------------|---------------------------------------------------
|-------------------------------|---------------------------------------------------

|--------------------------------------------------|
|--------------------------------------------------|
|-----7777777-/-13-13-13-13-13---------------------|
|-------------------------------------------------|
|-------------------------------------------------|
|------------------------------------------------|

Intro (Guitar II)  cuts in at 00:05
e----------------------------------------------------|
b----------------------------------------------------|
g----------------------------------------------------|
d--7-7-7--77---2-2-2--22--4-4-4--44-4-4-4---|
a--7-7-7--77---2-2-2--22--4-4-4--44-4-4-4---|
e--5-5-5--55---0-0-0--00--2-2-2--22-2-2-2---|

chorus
e----------------------------------------------|
b----------------------------------------------|
g----------------------------------------------|
d---777777--7----222222--2----4-----------------|
a---777777--7----222222--2----4-(ring)---------|
e---555555--5----000000--0----2----------------|
      ………          ………
"we’ll find our own way home…"
"sing out every song we know…" etc.,
verse
e-------------------------------------------------|
b------------------------------------------------|
g------------------------------------------------|
d---7777777--22222222--444444----------|
a---7777777--22222222--444444----------|
e---5555555--00000000--222222----------|
"who gives a *** what anybody says…."


Outro solo(it sounds similiar, but it  could be a hell of a lot better)
e----------------------------------------------------------------------------------
b----7676--56-7676--56-65-0-1-2-3--7676-56--7676--56-65-0-(ring)---|
g-----------------------------------------------------------------------------------
d-----------------------------------------------------------------------------------
a-----------------------------------------------------------------------------------


Important: The song above is NOT stored on the Chordie server. The original song is hosted at www.xguitar.com. Chordie works as a search engine and provides on-the-fly formatting. Chordie does not index songs against artists'/composers' will. To remove this song please click here.

This song is displayed as text-only. Transposing and tuning is only available for chordpro-songs.

Login - add to songbook

Rating click stars to rate

Layout
Accuracy

SHARE PAGE  




You need to log in to post comments