Chordie logo

More You Understand    Howie Day



more you understand
howie day
australia (2000)
transcribed: anthony g page 
11.11.00

e |--0-----0-------0--0------0------0------0--------0--0--0-
b |--1-----0------h1--3------1------0h1----0--------0--0--0-
g |--2-----2-------2--2------2------2------2--------1--2-p1-
d |--2-----2-------2--2------2------2------3--------2--2--2-
a |--0-----0----------0------0------0------3--------2--2--2-
E |---------------------------------------------------------

e |--0-----0-------0--0------0------0------0------0-----0------0--0--0-
b |--1-----0------h1--3------1------0h1----0------0-----0------0--0--0-
g |--2-----2-------2--2------2------2------2-----/4-----2------1--2-p1-
d |--2-----2-------2--2------2------2------3-----/4-----3------2--2--2-
a |--0-----0----------0------0------0------3-----/5-----3------2--2--2-
E |--------------------------------------------------------------------

e |--0------------0---------0--0-----------0-----------0------0------------------0--0--0-
b |--1------------0--------h1--3-----------1-----------0h1----0------------------0--0--0-
g |--2------------2---------2--2-----------2-----------2------2------------------1--2-p1-
d |--2------------2---------2--2-----------2-----------2------3------------------2--2--2-
a |--0------------0------------0-----------0-----------0------3------------------2--2--2-
E |--------------------------------------------------------------------------------------
   a thousand years ago today, we as two would be the same      i'd fall for you

e |--0---------0---------------0--0-----------0-----------0-----
b |--1---------0--------------h1--3-----------1-----------0h1---
g |--2---------2---------------2--2-----------2-----------2-----
d |--2---------2---------------2--2-----------2-----------2-----
a |--0---------0------------------0-----------0-----------0-----
E |-------------------------------------------------------------
     customize your relationship, do you feel the same about


e |-----0-----------------0----------0---0--0--0-
b |-----0-----------------0----------0---0--0--0-
g |-----2----------------/4----------2---1--2-p1-
d |-----3----------------/5----------3---2--2--2-
a |-----3----------------/5----------3---2--2--2-
E |----------------------------------------------
   your flirt with love, and your certainty

e |-----1------------------------3-------------------------------
b |-----3------------------------3-------------------------------
g |-----2------------------------0-------------------------------
d |-----0------------------------0-------------------------------
a |-----0------------------------2-------------------------------
E |------------------------------3-------------------------------
    the cia wouldn't bother you, they would always know the truth

e |--3----------------------0------0--
b |--3----------------------1------0--
g |--0----------------------2------2--
d |--2----------------------2------2--
a |--2----------------------0------0--
E |--0--------------------------------
         you never know who came

e |-----1---------------------------------3-------------------------------
b |-----3---------------------------------3-------------------------------
g |-----2---------------------------------0-------------------------------
d |-----0---------------------------------0-------------------------------
a |-----0---------------------------------2-------------------------------
E |---------------------------------------3-------------------------------
    and i would fall a thousand miles and you would fall fast to denial

e |-0--0----------------3-------------------0--------------------------0----
b |-1--3----------------3-------------------0--------------------------1----
g |-0--0----------------0-------------------1--------------------------2----
d |-2--2----------------0-------------------0--------------------------3----
a |-3--3----------------2-------------------2-------------------------------
E |---------------------3-------------------0-------------------------------
       the more you are,  the more you need,  and the more you'll understand

e |-0--0--------------------3-------------------0--------------------------0----0-----0--
b |-1--3--------------------3-------------------0--------------------------1----0-----1--
g |-0--0--------------------0-------------------1--------------------------2----2-----2--
d |-2--2--------------------0-------------------0--------------------------2----2-----3--
a |-3--3--------------------2-------------------2--------------------------0----0--------
E |-------------------------3-------------------0----------------------------------------
       the more you'll know,  the more you feel,  and the more you'll understand, ya, ya

e |--0-------0-------0--0------0------0------0------0--
b |--1-------0------h1--3------1------0h1----0------0--
g |--2-------2-------2--2------2------2------2------1--
d |--2-------2-------2--2------2------2------3------2--
a |--0-------0----------0------0------0------3------2--
E |----------------------------------------------------

e |-----0---------0-------------------0--0--------0-----------0------0---------------0--
b |-----1---------0------------------h1--3--------1-----------0h1----0---------------0--
g |-----2---------2-------------------2--2--------2-----------2------2---------------1--
d |-----2---------2-------------------2--2--------2-----------2------3---------------2--
a |-----0---------0----------------------0--------0-----------0------3---------------2--
E |-------------------------------------------------------------------------------------
   your sentiments are screaming out the felony of who's left out,     it's not you

e |-----0----------0----------0--0--------0-----------0------
b |-----1----------0---------h1--3--------1-----------0h1----
g |-----2----------2----------2--2--------2-----------2------
d |-----2----------2----------2--2--------2-----------2------
a |-----0----------0-------------0--------0-----------0------
E |----------------------------------------------------------
   it's you for me,  me for you, we can always follow through

e |-----0-----------------0-------------0----0--0--0-
b |-----0-----------------0-------------0----0--0--0-
g |-----2----------------/4-------------2----1--2-p1-
d |-----3----------------/5-------------3----2--2--2-
a |-----3----------------/5-------------3----2--2--2-
E |--------------------------------------------------
   this makeshift date, but why give up your love

e |-----1---------------------------3-------------------------3---------------------0--0-
b |-----3---------------------------3-------------------------3---------------------1--0-
g |-----2---------------------------0-------------------------0---------------------2--2-
d |-----0---------------------------0-------------------------2---------------------2--2-
a |-----0---------------------------2-------------------------2---------------------0--0-
E |---------------------------------3-------------------------0--------------------------
    the way it goes, call her name  do you ever feel the same,  and do you know who came

e |--1-------------------------------3------------------------
b |--3-------------------------------3------------------------
g |--2-------------------------------0------------------------
d |--0-------------------------------0------------------------
a |--0-------------------------------2------------------------
E |----------------------------------3------------------------
   a year ago, a thousand miles, how far away we were to smile

e |--0-------------------0-------------------0-----------------------
b |--1-------------------1-------------------1-----------------------
g |--0-------------------2-------------------2-----------------------
d |--2-------------------2-------------------3-----------------------
a |--3-------------------0-------------------------------------------
E |------------------------------------------------------------------
       too far gone to save, too far gone to save, and you'll know...


e |-0--0----------------3-------------------0--------------------------0----
b |-1--3----------------3-------------------0--------------------------1----
g |-0--0----------------0-------------------1--------------------------2----
d |-2--2----------------0-------------------0--------------------------3----
a |-3--3----------------2-------------------2-------------------------------
E |---------------------3-------------------0-------------------------------
       the more you are,  the more you need,  and the more you'll understand

e |-0--0--------------------3-------------------0--------------------------0----0-----0--
b |-1--3--------------------3-------------------0--------------------------1----0-----1--
g |-0--0--------------------0-------------------1--------------------------2----2-----2--
d |-2--2--------------------0-------------------0--------------------------2----2-----3--
a |-3--3--------------------2-------------------2--------------------------0----0--------
E |-------------------------3-------------------0----------------------------------------
       the more you'll know,  the more you feel,  and the more you'll understand, ya, ya



e |----2------------------------------------------------------0-----0------
b |----3------------------------------------------------------0-----0------
g |----4------------------------------------------------------4-----3------
d |----4------------------------------------------------------5-----4------
a |----2------------------------------------------------------5-----4------
E |------------------------------------------------------------------------
   the cia is after you, what the hell is there to do but run    we made...

e |--2----------------------------------------------0--------------------0-
b |--3----------------------------------------------0--------------------0-
g |--4----------------------------------------------4--------------------3-
d |--4----------------------------------------------5--------------------4-
a |--2----------------------------------------------5--------------------4-
E |------------------------------------------------------------------------
   a promise to eternity tucked away for you to see   on your way you'll be

e |-0-------------------------------0-----------------------------2------------------2--2-
b |-0-------------------------------0-----------------------------2------------------3--3-
g |-0-------------------------------6-----------------------------2------------------4--4-
d |-2-------------------------------7-----------------------------4------------------4--4-
a |-2-------------------------------7-----------------------------4------------------2--0-
E |-0-------------------------------------------------------------2-----------------------
    baffeled by relationships, your psyched up for the major lift   what you want to say

e |-0---------------------------------------0-------------------------
b |-0---------------------------------------0-------------------------
g |-0---------------------------------------6-------------------------
d |-2---------------------------------------7-------------------------
a |-2---------------------------------------7-------------------------
E |-0-----------------------------------------------------------------
    caught to blame, they erased your name  we will always be the same

e |-2------------------0-------------------2--------------------------3----
b |-3------------------0-------------------2--------------------------3----
g |-2------------------6-------------------3--------------------------0----
d |-0------------------7-------------------2--------------------------0----
a |-0------------------7-------------------4--------------------------2----
E |----------------------------------------2--------------------------3----
      the more you are,  the more you need,  and the more you'll understand

e |-2----------------------0-------------------2--------------------------3-------
b |-3----------------------0-------------------2--------------------------3-------
g |-2----------------------6-------------------3--------------------------0-------
d |-0----------------------7-------------------2--------------------------0-------
a |-0----------------------7-------------------4--------------------------2-------
E |--------------------------------------------2--------------------------3-------
      the more you'll know,  the more you feel,  and the more you'll understand...

lead outro

e |-------------------------------------------
b |-------------------------------------------
g |-7--9--11----6--7--9--6--7--9----7--9--11--
d |-------------------------------------------
a |-5--7--9-----4--5--7--4--5--7----5--7--9---


Important: The song above is NOT stored on the Chordie server. The original song is hosted at www.xguitar.com. Chordie works as a search engine and provides on-the-fly formatting. Chordie does not index songs against artists/composers will. To remove this song please click here.

This song is displayed as text-only. Transposing and tuning is only available for chordpro-songs.

Login - add to songbook

Rating click stars to rate

Layout
Accuracy

SHARE PAGE  



You need to log in to post comments