Chordie logo


Afternoon With The Axolotis   Hum



X===============================PLEASE NOTE==============================X
X  This tab is all my own and represents my interpretation of the song.  X
X You may only use this tab for private study, scholarship, or research. X
X  Do not change, deface, mutilate, or in any other way alter this tab.  X
X   You must email me first if you want to use this tab on your site.    X
X========================================================================X
*Afternoon with the Axolotls*
Transcribed by Obscured@san.rr.com
Http://home.san.rr.com/obscured
TUNING: E A D G B E
INTRO - Clean guitar
|-3---------------------------|
|---3-3---------------------3-|
|--------2-2-2-2p0---0----0---|
|-----------------------------|
|------------------3----3-----|
|-----------------------------|

Then come in distorted with this
|---------|
|---------|
|-5-------|
|-5-------|
|-3-------|
|---------|
VERSE - Same
BRIDGE

 Guitar 1
|----2---------------------5-----------3-------|
|----2---------------------5-----------3-------|
|----3---------------------6-----------4-------|
|----4---------------------7-----------5-------|
|----4---------------------7-----------5-------|
|----2---------------------5-----------3-------|
|Guitar 2
|-4--6--6-6-7--7-7-7-/4----9---9--9----7---7-7-|
|-7--7--7-7-7--7-7-7-/7----10--10-10---8---8-8-|
|-6--6--6-6-6--6-6-6-/6----9---9--9----7---7-7-|
|----------------------------------------------|
|----------------------------------------------|
|----------------------------------------------|
Strum around on this
|-3-|
|-3-|
|-0-|
|-2-|
|-3-|
|---|
Then play the intro again
VERSE 2 - Same
BRIDGE 2 - Distorted
|----------------------------|
|----------------------------|
|----------------------------|
|-4-4-4-4-4-4-4-4--7-7-7-5-5-|
|-4-4-4-4-4-4-4-4--7-7-7-5-5-|
|-2-2-2-2-2-2-2-2--5-5-5-3-3-|
End on
|----------|
|----------|
|----------|
|-4--------|
|-4--------|
|-2--------|


Important: The song above is NOT stored on the Chordie server. The original song is hosted at www.xguitar.com. Chordie works as a search engine and provides on-the-fly formatting. Chordie does not index songs against artists/composers will. To remove this song please click here.

This song is displayed as text-only. Transposing and tuning is only available for chordpro-songs.

Login - add to songbook

Rating click stars to rate

Layout
Accuracy

SHARE PAGE  




You need to log in to post comments