Guitar Tabs, Chords and Lyrics


Apollo   Hum



X===============================PLEASE NOTE==============================X
X  This tab is all my own and represents my interpretation of the song.  X
X You may only use this tab for private study, scholarship, or research. X
X  Do not change, deface, mutilate, or in any other way alter this tab.  X
X   You must email me first if you want to use this tab on your site.    X
X========================================================================X
*Apollo*
Transcribed by Obscured@san.rr.com
Http://home.san.rr.com/obscured
Tuning: D A D G B E
INTRO/VERSE

Note: The following is played through the entire song
|--------2----|
|------0----0-|
|-1-1---------|
|-------------|
|-------------|
|-------------|
Lead...
|----------------------------7-6--------|
|-5/7-5\4--4/5--4p0----4-7-4-----7-4----|
|---------------------------------------|
|---------------------------------------|
|---------------------------------------|
|---------------------------------------|
CHORUS - Same
VERSE 2 - Same
CHORUS 2 - Same
VERSE 3 - Same
CHORUS 3 - Same
OUTRO - Same


Important: The song above is NOT stored on the Chordie server. The original song is hosted at www.xguitar.com. Chordie works as a search engine and provides on-the-fly formatting. Chordie does not index songs against artists'/composers' will. To remove this song please click here.

This song is displayed as text-only. Transposing and tuning is only available for chordpro-songs.

Login - add to songbook

Rating click stars to rate

Layout
Accuracy

Jango Player

SHARE PAGE  




You need to log in to post comments