Chordie logo


Ms. Lazarus   Hum



X===============================PLEASE NOTE==============================X
X  This tab is all my own and represents my interpretation of the song.  X
X You may only use this tab for private study, scholarship, or research. X
X  Do not change, deface, mutilate, or in any other way alter this tab.  X
X   You must email me first if you want to use this tab on your site.    X
X========================================================================X
*Ms. Lazarus*
Transcribed by Obscured@san.rr.com
Http://home.san.rr.com/obscured
TUNING: D A D G B E
INTRO
                x8
|-0-0-0-0-0-0-0-0-|
|-3-3-3-3-3-3-3-3-|
|-2-2-2-2-2-2-2-2-|
|-0-0-0-0-0-0-0-0-|
|-0-0-0-0-x-x-x-x-|
|-0-0-0-0-4-4-4-4-|

                                x3
|-0-0-0-0-0-0-0-0-3-3-3-3-0-0-0-0-|
|-2-2-2-2-2-2-2-2-3-3-3-3-3-3-3-3-|
|-2-2-2-2-2-2-2-2-0-0-0-0-2-2-2-2-|
|-2-2-2-2-2-2-2-2-0-0-0-0-0-0-0-0-|
|-0-0-0-0-0-0-0-0-x-x-x-x-x-x-x-x-|
|-----------------5-5-5-5-4-4-4-4-|
|-2-2-2-2-2-2-2-2-|
|-3-3-3-3-3-3-3-3-|
|-4-4-4-4-4-4-4-4-|
|-4-4-4-4-4-4-4-4-|
|-2-2-2-2-2-2-2-2-|
|-----------------|
|-0-0-0-0-3-3-3-3-0-0-0-0-|
|-2-2-2-2-3-3-3-3-3-3-3-3-|
|-2-2-2-2-0-0-0-0-2-2-2-2-|
|-2-2-2-2-0-0-0-0-0-0-0-0-|
|-0-0-0-0-x-x-x-x-x-x-x-x-|
|---------5-5-5-5-4-4-4-4-|
VERSE
|-0-0-0-0-0-0-0-0-|
|-3-3-3-3-3-3-3-3-|
|-2-2-2-2-2-2-2-2-|
|-0-0-0-0-0-0-0-0-|
|-0-0-0-0-x-x-x-x-|
|-0-0-0-0-4-4-4-4-|
PRECHORUS
                                x3
|-0-0-0-0-0-0-0-0-3-3-3-3-0-0-0-0-|
|-2-2-2-2-2-2-2-2-3-3-3-3-3-3-3-3-|
|-2-2-2-2-2-2-2-2-0-0-0-0-2-2-2-2-|
|-2-2-2-2-2-2-2-2-0-0-0-0-0-0-0-0-|
|-0-0-0-0-0-0-0-0-x-x-x-x-x-x-x-x-|
|-----------------5-5-5-5-4-4-4-4-|
|-2-2-2-2-2-2-2-2-|
|-3-3-3-3-3-3-3-3-|
|-4-4-4-4-4-4-4-4-|
|-4-4-4-4-4-4-4-4-|
|-2-2-2-2-2-2-2-2-|
|-----------------|
|-0-0-0-0-3-3-3-3-0-0-0-0-|
|-2-2-2-2-3-3-3-3-3-3-3-3-|
|-2-2-2-2-0-0-0-0-2-2-2-2-|
|-2-2-2-2-0-0-0-0-0-0-0-0-|
|-0-0-0-0-x-x-x-x-x-x-x-x-|
|---------5-5-5-5-4-4-4-4-|
CHORUS
|---------0-----2-----5-5-|---------0---------------|
|---3-------3-----3-------|---3-------3---3\2---2p0-|
|-----2-------------------|-----2-------------------|
|-0-----0-----0-----0-----|-0-----0-----0-----0-----|
|-------------------------|-------------------------|
|-------------------------|-------------------------|

|-------------------------------------------------|
|---0-----0-----0-----0-----0-----0-----0-----0---|
|-----2-----2-----2-----2-----2-----2-----2-----2-|
|-0-----0-----0-----0-----0-----0-----0-----0-----|
|-------------------------------------------------|
|-------------------------------------------------|
PRECHORUS 2 - Same but with distortion
SOLO - With verse rhythm
                  x4
|-------------------|
|-7h10p7------------|
|--------9-6--------|
|------------9-7----|
|-------------------|
|-------------------|
|------------------------|
|------------------------|
|---6-7-9-7-6-6-7-6~~~~--|
|-9----------------------|
|------------------------|
|------------------------|
VERSE 2 - Same with distortion
PRECHORUS 3 - Same but kill the distortion
CHORUS 2/OUTRO - Same

End on
|------------0----|
|------------3----|
|-(0)-----0--2----|
|--0---0--0--0----|
|--x---x--x--x----|


Important: The song above is NOT stored on the Chordie server. The original song is hosted at www.xguitar.com. Chordie works as a search engine and provides on-the-fly formatting. Chordie does not index songs against artists/composers will. To remove this song please click here.

This song is displayed as text-only. Transposing and tuning is only available for chordpro-songs.

Login - add to songbook

Rating click stars to rate

Layout
Accuracy

SHARE PAGE  




You need to log in to post comments