Guitar Tabs, Chords and Lyrics


Scrafer   Hum



X===============================PLEASE NOTE==============================X
X  This tab is all my own and represents my interpretation of the song.  X
X You may only use this tab for private study, scholarship, or research. X
X  Do not change, deface, mutilate, or in any other way alter this tab.  X
X   You must email me first if you want to use this tab on your site.    X
X========================================================================X
*Scraper*
Transcribed by Obscured@san.rr.com
Http://home.san.rr.com/obscured
Tuning: D A D G B E
INTRO
|-----------------------------------------------------------|
|-----------------------------------------------------------|
|-----------------------------------------------------------|
|-7--7-7-5--5-4--4-4-4-10--10-10-9--9-9-9--9-9--9--9--9/10--|
|-7--7-7-5--5-4--4-4-4-10--10-10-9--9-9-9--9-9--9--9--9/10--|
|-7--7-7-5--5-4--4-4-4-10--10-10-9--9-9-9--9-9--9--9--9/10--|
VERSE - Bass only at first but then palm mute the low D
PRECHORUS - Play this palm muted and gradually let off
|------------|
|------------|
|------------|
|------------|
|------------|
|-4--5--4--5-|
CHORUS
|---------------------------|
|---------------------------|
|------9--9-9-------7--7-7--|
|-2----9--9-9--2----7--7-7--|
|-2----7--7-7--2----5--5-5--|
|-2--2---------2--2---------|
PRECHORUS 2 - Same
VERSE 2 - Same
PRECHORUS 3 - Same
CHORUS 2 - Same
PRECHORUS 4 - Same
INTERLUDE
|--------------------------------|
|--------------------------------|
|--------------------------------|
|-7--7-7-4/5-5-5-4/5-5-5-4/5-5-5-|
|-7--7-7-4/5-5-5-4/5-5-5-4/5-5-5-|
|-7--7-7-4/5-5-5-4/5-5-5-4/5-5-5-|
BRIDGE - Play verse
CHORUS 3 - Same
PRECHORUS 5 - Same
OUTRO
|-------------|
|-------------|
|-------------|
|-4--5--4--5--|
|-4--5--4--5--|
|-4--5--4--5--|

End on
|--------------------------------------|
|--------------------------------------|
|--------------------------------------|
|-4-4-4-4-4-4-4-4-4-4-4-4-4-4-4-4-4----|
|-4-4-4-4-4-4-4-4-4-4-4-4-4-4-4-4-4----|
|-4-4-4-4-4-4-4-4-4-4-4-4-4-4-4-4-4----|


Important: The song above is NOT stored on the Chordie server. The original song is hosted at www.xguitar.com. Chordie works as a search engine and provides on-the-fly formatting. Chordie does not index songs against artists'/composers' will. To remove this song please click here.

This song is displayed as text-only. Transposing and tuning is only available for chordpro-songs.

Login - add to songbook

Rating click stars to rate

Layout
Accuracy

Jango Player

SHARE PAGE  




You need to log in to post comments