Guitar Tabs, Chords and Lyrics


Roswell 47    Hypocrisy



Roswell 47 - Hypocrisy
Tune To B

|--------------------------------------------------------|
|--------------------------------------------------------|
|*----------------9--------------------9----------------*|
|*--------------9--10--------------------9-10-----------*|
|--5-4-3-2----7------10---10-12~-----7--------10---10-12~|
|--3-2-1-0--0----------------------0---------------------|
  |_______|
These chords are sustained underneath.  Sometimes they're played at
different times...

Before the harmony comes in, it goes...
5 4 3  5 4 3 2
3 2 1  3 2 1 0

verse riff
|--------------------------------------------------------|
|--------------------------------------------------------|
|*-------------5-----(5)--------------------------------*|
|*-------------3-----(3)----------4---------------------*|
|---2---2-4-5-----------2---2-4-5-2---4-5----------------|
|---0---0-2-3-----------0---0-2-3-----2-3----------------|

pick this fast (well, fast being a relative term)...
|--------------------------------------------------------|
|--------------------------------------------------------|
|*--------------9--8------------------------------------*|
|*---7--9--10-------------------------------------------*|
|--------------------------------------------------------|
|--------------------------------------------------------|
This riff has an ending which I'm not completely sure of...possible it
doesn't change?

|--------------------------------------------------------|
|--------------------------------------------------------|
|*------------------------------------------------------*|
|*------------------------------------------------------*|
|---2-5-3-(--7-etc. from intro)-2-5-3--5-4-3-2-(2nd part)|
|---0-3-1-(0------------------)-0-3-1--3-2-1-0-(of intro)|

Verse riff again
3rd riff again

|--------------------------------------------------------|
|--------------------------------------------------------|
|*-------7-6-----6--7~----------7-6-----7-/-9~----------*|
|*----4-------4--------------5-------5------------------*|
|--4------------------(4)-5------------------------------|
|--2------------------(2)-3------------------------------|

3rd riff again


Important: The song above is NOT stored on the Chordie server. The original song is hosted at www.xguitar.com. Chordie works as a search engine and provides on-the-fly formatting. Chordie does not index songs against artists'/composers' will. To remove this song please click here.

This song is displayed as text-only. Transposing and tuning is only available for chordpro-songs.

Login - add to songbook

Rating click stars to rate

Layout
Accuracy

SHARE PAGE  




You need to log in to post comments