Guitar Tabs, Chords and Lyrics


Evil Invaders    Hypocrisy



HYPOCRISY - EVIL INVADERS
                      From the Album - THE FINAL CHAPTER
                        Copyright - NUCLEAR BLAST 1997
                          Version 1.0 - MAY 20, 2002

                        Origionaly Preformed by - RAZOR
                                Copyright 1985

Transcribed by: James Williams (Inverted)

For Questions, Comments, Newest Version, or Corrections contact
Inverted: at Inverted_one@hotmail.com

Check Out Death8699.com Metaltabs.com or dsrmusic.com for More
Transcriptions:http://www.Death8699.com http://www.Metaltabs.com


.  - palm mute           /  - slide up to
\  - slide down to       ~  - vibrato
h  - hammer on           b  - Bend
p  - pull off            Suffixes for bend
t  - tap                 f  - full bend    h - half bend
ph - pinched harmonic    q  - quarter bend t - tap bend
*  - see comment         ^  - Hold bend    r release bend
x  - Stuccatto           ~  - vibrato bend
,  - slight palm mute    () - ghost note, sustained note
"  - tremolo note         - Trill

Tuning: "B"E"A"D"

Riff 1
|------------------------------------------------------|
|------------------------------------------------------|
|------------------------------------------------------|
|--4-4-4-4-6\7--4-4-4-4-6\7----------6\7----------6\7--|
|--2-2-2-2-4\5--2-2-2-2-4\5--2-2-2-2-4\5--7-7-7-7-4\5--|
|----------------------------0-0-0-0------5-5-5-5------|

Riff 2-A
|-------------------------------------------|
|-------------------------------------------|
|-------------------------------------------|
|-------------------------------------------|
|--2-2-2-2-2-2-2-2-2-2-2-2-2-2-2-2-0-0-0-0--|
|-------------------------------------------|
   . . . . . . . . . . . . . . . . . . . .

Riff 3
|---------------------------------|
|---------------------------------|
|---------------------------------|
|--444467-4444---4444---22222222--|
|--222245-222224-222224-00000000--|
|-------------02-----02-----------|

Riff 4
|------------------------------------------------------|
|------------------------------------------------------|
|------------------------------------------------------|
|--444467-------4-2-4----------------------4-2-4-------|
|--222245-2--4--2-0-2-2--4--22002222-2--4--2-0-2-2--4--|
|---------0--2--------0--2-----------0--2--------0--2--|
                            ........

Fill 1
|-----------|
|-----------|
|-----------|
|-----------|
|--2-2-2-2--|
|--0-0-0-0--|
   . . . .

Riff 2-B (CHORUS)                         x3
|-------------------------------------------|
|-------------------------------------------|
|-------------------------------------------|
|-------------------------------------------|
|--2-2-2-2-2-2-2-2-2-2-2-2-2-2-2-2-0-0-0-0--|
|-------------------------------------------|
   . . . . . . . . . . . . . . . . . . . .
                                          x1
|-------------------------------------------|
|-------------------------------------------|
|-------------------------------------------|
|-------------------------------------------|
|--2-2-2-2-2-2-2-2-2-2-2-2-2-2-2-2--2---4---|
|-----------------------------------0---2---|
   . . . . . . . . . . . . . . . .

Fill 2
|----------|
|----------|
|----------|
|--444467--|
|--222245--|
|----------|


Riff 5-A
|----------------------------------|
|----------------------------------|
|----------------------------------|
|----------------------------------|
|--4-------7---6---4-------7---9---|
|--2-------5---4---2-------5---7---|

Riff 5-B
|----------------------------------|
|----------------------------------|
|----------------------------------|
|----------------------------------|
|----------------------------------|
|-22222222555544442222222255557777-|
  ................................

End
|--------|
|--------|
|--------|
|--------|
|--9///--|
|--7///--|

Here's the Lyrics: EVIL INVADERS

Beneath the dampened soil lies a terror from the past
The rotting corpses of the damned where evil has been cast
A deathly curse surrounding all the ancient graves and tombs
The time has come the time is now: release unearthly doom
Lightning strikes, evil night, start the dreaded turmoil
Rotting flesh appears now from above the loosened soil
Rising from the underworld, destroy the human race
Unleashed upon a dreary night to spread unholy grace
From hell they rise, with screams and cries
At death's own will
In frantic rage they set the stage
They start to kill
Evil Invaders: Death deception in the night
Evil Invaders: Corruption as they fight the fight
Evil Invaders: Spreading out to take command
Evil Invaders: The future of mankind at hand
Mutilated bodies now employed upon the streets
Searching around, seeking out the human flesh to eat
Resurgence of the damned will our cities fate defeat?
Unless we're strong and earth defend we'll fall beneath their feet
The evil force grows stronger as the terror grows intense
The panic stricken population builds up its defence
A sudden rude awakening as cities fall to dread
Amidst the human slaughter, tell us how we kill the dead


Check out my other tabs by Obituary, Deicide, Six Feet Under,


Important: The song above is NOT stored on the Chordie server. The original song is hosted at www.xguitar.com. Chordie works as a search engine and provides on-the-fly formatting. Chordie does not index songs against artists'/composers' will. To remove this song please click here.

This song is displayed as text-only. Transposing and tuning is only available for chordpro-songs.

Login - add to songbook

Rating click stars to rate

Layout
Accuracy

SHARE PAGE  




You need to log in to post comments