Guitar Tabs, Chords and Lyrics


Mind Corruption    Hypocrisy



HYPOCRISY - MIND CORRUPTION
                      From the Album - THE FOURTH DIMENSION
                          Copyright: NUCLEAR BLAST 1994
                           Version 1.0 - November 2001


Transcribed by: James Williams (Inverted)

For Questions, Comments, Newest Version, or Corrections contact
Inverted: at Inverted_one@hotmail.com

Check Out Death8699.com Metaltabs.com or dsrmusic.com for More
Transcriptions:http://www.Death8699.com http://www.Metaltabs.com


 .  - palm mute           /  - slide up to
 \  - slide down to       ~  - vibrato
 h  - hammer on           b  - Bend
 p  - pull off            Suffixes for bend
 t  - tap                 f  - full bend    h - half bend
 ph - pinched harmonic    q  - quarter bend t - tap bend
 *  - see comment         ^  - Hold bend    r release bend
 x  - Stuccatto           ~  - vibrato bend
 ,  - slight palm mute    () - ghost note, sustained note
 "  - tremolo note         - Trill

 MIND CORRUPTION...

 Tuning: "C"F"A#"D#"G"C"

Riff 1-A
|-----------------------------------------------|
|-----------------------------------------------|
|-----------------------------------------------|Gtr I
|------------------6---------------------6------|
|------6-9-8\9-------9-8\9-----6-9-8-------9-8--|
|--0-0---------0-0---------0-0-------0-0--------|
pm . .         . .         . .       . .

Riff 1-B (Also solo Riff.)
|-----------------------------------------------|
|-----------------------------------------------|
|-----------------------------------------------|Gtr II
|--2-----------------------9---------8----------|
|--2-----------------------9---------8----------|
|--0-----------------------7---------6----------|

Riff 1-C (Third Gtr comes in played one octave higher.)
|-------------------------------------------------------------|
|-------------------------------------------------------------|
|----------------------13---------------------------13--------|
|------13-16-15\16--------16-15\16-----13-16-15--------16-15--|
|-------------------------------------------------------------|
|--0-0-------------0-0-------------0-0----------0-0-----------|
pm . .             . .             . .          . .

Riff 2
|--------------------------------------------------------------------|
|--------------------------------------------------------------------|
|--------------------------------------------------------------------|
|------------------4-2-----2------------------------4/3---4/3---4/3--|
|--2-4-5-2--2-4-5------5-4---5-4-2--2-4-5-2--2-4-5--2/1---2/1---2/1--|
|--0-2-3-0--0-2-3-------------------0-2-3-0--0-2-3------0-----0------|
pm . . . .  . . .  . . . . . . . .  . . . .  . . .      .     .

Riff 3
|----------------------------------------|
|----------------------------------------|
|----------------------------------------|
|--2----4----3----7----2----5----4----3--|
|--2----4----3----5----2----3----2----3--|
|--0----2----1----5----0----3----2----1--|

Riff 4-A
|-----------------------------------------------------|
|-----------------------------------------------------|
|-----------------------------------------------------|
|------9/8-----9/8---9"--6"-----9/8-----9/8-----8"6"--|
|------7/6-----7/6-6"--8"-------7/6-----7/6-6"9"------|
|--0-0-----0-0--------------0-0-----0-0---------------|
pm . .     . .              . .     . .

Riff 4-B
|-----------------------------------------------------|
|-----------------------------------------------------|
|-------------------------------------------------ph--|
|------9/8-----9/8---9"--6"-----9/8-----9/8-----8"6~--|
|------7/6-----7/6-6"--8"-------7/6-----7/6-6"9"------|
|--0-0-----0-0--------------0-0-----0-0---------------|
pm . .     . .              . .     . .

Solo
||--------|-----------|-----------|---------|-------------|----------|
||--------|-----------|-9--11--12-|-12p11p9-|-------------|----------|
||--6\8~--|-8--10--11-|-----------|---------|-11--10--7~--|-10-8-6---|
||--------|-----------|-----------|---------|-------------|--------9-|
||--------|-----------|-----------|---------|-------------|----------|
||--------|-----------|-----------|---------|-------------|----------|
 pm                                                          . . . .

 ---------|---------|---------|---------|-----------|------------|
 ---------|---------|---------|---------|-----------|------------|
 -8-6-----|-6-------|---------|---------|-----------|------------|
 -----9-8-|---9-8-6-|-9-8-6---|-8"6"----|6"------ph-|----------6-|
 ---------|---------|-------9-|-----9"8"|--9"8"6"6~-|-6--8--9----|
 ---------|---------|---------|---------|-----------|------------|
  . . . .   . . . .   . . . .   . . . .  . . . .

 ------------|------------|------------|----------6-|--------|
 ------------|------------|------------|-6--7--9----|--9--7--|
 ------------|------------|----------6-|------------|--------|
 -------6--8-|----6--8--9-|-6--8--9----|------------|--------|
 -8--9-------|-9----------|------------|------------|--------|
 ------------|------------|------------|------------|--------|


 -11"-13"-14"-|-16"-14"-13"-|-18"-16"-14"-|-13-14-13-11~--||
 -------------|-------------|-------------|---------------||
 -------------|-------------|-------------|---------------||
 -------------|-------------|-------------|---------------||
 -------------|-------------|-------------|---------------||
 -------------|-------------|-------------|---------------||

*The song ends on a E5 chord.

Song Structure:

Riff (1) x 6
Riff (2) x 6
Riff (3) x 2
Riff (4) x 4
Riff (2) x 4
Riff (3) x 2
Riff (4) x 4
Riff (1) x 4
Solo
Riff (3) x 2
Riff (1) x 4 LIAR!!!



Important: The song above is NOT stored on the Chordie server. The original song is hosted at www.xguitar.com. Chordie works as a search engine and provides on-the-fly formatting. Chordie does not index songs against artists'/composers' will. To remove this song please click here.

This song is displayed as text-only. Transposing and tuning is only available for chordpro-songs.

Login - add to songbook

Rating click stars to rate

Layout
Accuracy

SHARE PAGE  




You need to log in to post comments