Guitar Tabs, Chords and Lyrics


Pleasure of Molestation    Hypocrisy



HYPOCRISY - PLEASURE OF MOLESTATION
                From the Album - TEN YEARS OF CHAOS AND CONFUSION
                         Copyright - NUCLEAR BLAST 2001
                             Version 2.0 - JULY, 2002


Version 2.0 Transcribed by: James Williams (INVERTED)
Origional Transcription by: NORTHERZH Russia, January 1999
And by Lalith Vipulananthan (Lal) April 2001

Solos Transcribed by: Inverted

For Questions, Comments, Newest Version, or Corrections contact INVERTED
at Inverted_one@hotmail.com or HELLION at nikita_the_hellion@yahoo.com or
Lal at lalithv@uk2.net

Check Out Death8699.com Metaltabs.com or dsrmusic.com for More
Transcriptions:http://www.Death8699.com http://www.Metaltabs.com


.  - palm mute           /  - slide up to
\  - slide down to       ~  - vibrato
h  - hammer on           b  - Bend
p  - pull off            Suffixes for bend
t  - tap                 f  - full bend    h - half bend
ph - pinched harmonic    q  - quarter bend t - tap bend
*  - see comment         ^  - Hold bend    r release bend
x  - Stuccatto           ~  - vibrato bend
,  - slight palm mute    () - ghost note, sustained note
"  - tremolo note         - Trill

Tunning "B"E"A"D"F#"B"


Riff 1-A                               GTR I
|--------------------------------------------|
|--------------------------------------------|
|--------------------------------------------|
|--------------------------------------------|
|--------------------------------------------|
|--000077778888777710101010777788885555------|
|                                            |
|--------------------------------------------|
|--------------------------------------------|
|--------------------------------------------|
|--------------------------------------------|
|--------------------------------------------|
|--0000777788887777101010107777888810101010--|

                                     GTR II
|--------------------------------------------|
|--------------------------------------------|
|--------------------------------------------|
|--33-2--------------------------------------|
|--33-2--------------------------------------|
|--11-0--------------------------------------|
|  .. .                                      |
|                                            |
|--------------------------------------------|
|--------------------------------------------|
|--------------------------------------------|
|--33-2--------------------------------------|
|--33-2--------------------------------------|
|--11-0--------------------------------------|
   .. .

Riff 1-B                               GTR I
|--------------------------------------------|
|--------------------------------------------|
|--------------------------------------------|
|--------------------------------------------|
|--------------------------------------------|
|--000077778888777710101010777788885555------|
|                                            |
|--------------------------------------------|
|--------------------------------------------|
|--------------------------------------------|
|--------------------------------------------|
|-------------------12---9--10---12----------|
|--0000777788887777-10---7---8---10----------|
                     .   .   .   .
                                     GTR II
|--------------------------------------------|
|--------------------------------------------|
|--------------------------------------------|
|--33-2--------------------------------------|
|--33-2--------------------------------------|
|--11-0--------------------------------------|
|  .. .                                      |
|                                            |
|--------------------------------------------|
|--------------------------------------------|
|--------------------------------------------|
|--33-2--------------------------------------|
|--33-2-------------12---9--10---12----------|
|--11-0-------------10---7---8---10----------|
   .. .              .   .   .   .

Riff 2
|----------------------------------------------------------------------|
|----------------------------------------------------------------------|
|----------------------------------------------------------------------|
|----------------------666677777777----99991010101010101010--7----5----|
|------777788888888------------------------------------------5----3----|
|--0000------------0000------------0000----------------------5----3----|
   ....            ....            ....

Riff 3                            GTR I
|---------------------------------------|
|---------------------------------------|
|---------------------------------------|
|----------------7777------------7766---|
|--77777755778888----777777557788----88-|
|---------------------------------------|

                                 GTR II
|---------------------------------------|
|---------------------------------------|
|--------------------------------9-8----|
|--------------------------------7-6-10-|
|--2----------------------------------8-|
|--0------------------------------------|


Riff 4-A                          GTR I
|---------------------------------------|
|---------------------------------------|
|---------------------------------------|
|---------------------------------------|
|--3---------3----2-3-----------4433----|
|--1-0000000-1-00-0-1-0000000-33----44--|
|    .......   ..     ....... ........  |
|                                       |
|---------------------------------------|
|---------------------------------------|
|---------------------------------------|
|-------------------------------6-5x----|
|--3---------3----2-3---------5-4-3x----|
|--1-0000000-1-00-0-1-0000000-3---------|
     .......   ..     .......
                                 GTR II
|---------------------------------------|
|---------------------------------------|
|---------------------------------------|
|---------------------------------------|
|--3x--------3x---2-3x------------------|
|--1x--------1x---0-1x------------------|
|                                       |
|                                       |
|---------------------------------------|
|---------------------------------------|
|---------------------------------------|
|-------------------------------6-5x----|
|--3x--------3x---2-3x--------5-4-3x----|
|--1x--------1x---0-1x--------3---------|


Riff 4-B                        GTR I&II
|---------------------------------------|
|---------------------------------------|
|---------------------------------------|
|---------------------------------------|
|--3---------3----2-3-----------4433----|
|--1-0000000-1-00-0-1-0000000-33----44--|
|                                       |
|---------------------------------------|
|---------------------------------------|
|---------------------------------------|
|-------------------------------6-5-----|
|--3---------3----2-3---------5-4-3-----|
|--1-0000000-1-00-0-1-0000000-3---------|
                              . . .

Riff 4-C                        GTR I&II
|---------------------------------------|
|---------------------------------------|
|---------------------------------------|
|---------------------------------------|
|--3---------3----2-3-----------4433----|
|--1-0000000-1-00-0-1-0000000-33----44--|
|                                       |
|---------------------------------------|
|---------------------------------------|
|---------------------------------------|
|---------------------------------------|
|--3---------3----2-3-----------4-3-----|
|--1-0000000-1-00-0-1-0000000-3---------|


Riff 5                                                   GTR I
|--------------------------------------------------------------|
|--------------------------------------------------------------|
|--------------------------------------------------------------|
|--2-----------------------------3-----------------------------|
|--0-----------------------------1-----------------------------|
|--0-----------------------------1-----------------------------|
|                                                              |
|--------------------------------------------------------------|
|--------------------------------------------------------------|
|--------------------------------------------------------------|
|--2-----------------------------5--------------------5--5-----|
|--0-----------------------------3--------------------3--3-----|
|--0-----------------------------3--------------------3--3-----|
                                                      .  .

                                                       GTR II
|--------------------------------------------------------------|
|--------17-------17-------17----------18-------18-------18----|
|-----16-------16-------16----------15-------15-------15-------|
|--14-------14-------14----------15-------15-------15----------|
|--------------------------------------------------------------|
|--------------------------------------------------------------|
|                                                              |
|--------------------------------------------------------------|
|--------17-------17-------17----------20-------20-------20----|
|-----16-------16-------16----------17-------17-------17-------|
|--14-------14-------14----------17-------17-------17----------|
|--------------------------------------------------------------|
|--------------------------------------------------------------|


Fill
|------------------|
|------------------|
|------------------|
|--2--2-2--2--2-2--|
|--2--2-2--2--2-2--|
|--0--0-0--0--0-0--|
   .  . .  .  . .

Riff 6-A                                                           GTR I
|------------------------------------------------------------------------|
|------------------------------------------------------------------------|
|------------------------------------------------------------------------|
|---------------------------------------------------------5---4----------|
|-4-------5-------2---------------4---------5---------2---3---2---5------|
|-2-------3-------0---------------2---------3---------0-----------3------|

                                                                  GTR II
|------------------------------------------------------------------------|
|------------------------------------------------------------------------|
|------------------------------------------------------------------------|
|---------------------------------------------------------5---4----------|
|---------------------------------------------------------3---2---5------|
|-----------------------------------------------------------------3------|

Riff 6-B                                                         GTR I&II
|------------------------------------------------------------------------|
|------------------------------------------------------------------------|
|------------------------------------------------------------------------|
|-----------------------------------------------------------5-5-4-4------|
|-4-4-4-4-5-5-5-552-2-2-2-2-2-2-224-4-4-4-445-5-5-5-552-2-2-3-3-2-2-5-5--|
|-2-2-2-2-3-3-3-330-0-0-0-0-0-0-002-2-2-2-223-3-3-3-330-0-0---------3-3--|
  . . . . . . . ... . . . . . . ... . . . ... . . . ... . .


*Special solo notation's

pb - prebend note                   rb - release tremolo bar slowly
b2 - bend 2 steps                   bt - tap with tremolo bar
bd - press tremolo bar down         fb - flutter tremolo bar


Solo 1
|--bd-pb22^rbfb/--bd-pb24^rbfb/----------bt20p17p14bt20p17p14bt20p17p14-
|-------bf-------------bh-----------------------------------------------
|-----------------------------------------------------------------------
|-----------------------------------------------------------------------
|--------------------------------bd19rb/--------------------------------
|-----------------------------------------------------------------------

------------------------------------------------------------------------
--------------------------------------------15151717-1515---------------
-------------------------------1414-16161717-------------171716161414/--
--------------1212-141416161717-----------------------------------------
--121214141515----------------------------------------------------------
------------------------------------------------------------------------


--t19p15p12-t19p15p12-t19p15p12-t19p15p12-t19p15p12-t19p15p12-t19p15p12-
------------------------------------------------------------------------
------------------------------------------------------------------------
------------------------------------------------------------------------
------------------------------------------------------------------------
------------------------------------------------------------------------


--t19p15p12-t20p15p12-t20p15p12-t20p15p12-t20p15p12-t22p15p12-t22p15p12-
------------------------------------------------------------------------
------------------------------------------------------------------------
------------------------------------------------------------------------
------------------------------------------------------------------------
------------------------------------------------------------------------


--t22p15p12-t22p15p12-22^----r(22)-///--|
----------------------bf----------------|
----------------------------------------|
----------------------------------------|
----------------------------------------|
----------------------------------------|


*Note: There are many differences between solo 1 & solo 2.


Solo 2 (Origional "Osculum Obscenun" version "c" tuning.)
|--bd-pb10^--rb-slowly--------------------------------------------------
|-------b2--------------------------------------------------------------
|-----------------------------------------------------------------------
|-------------------------------------------tremolo pick-while-sliding--
|-------------------------------bd17rb///-fb\\\///\\\///\\\///\\\///\\\-
|-----------------------------------------------------------------------


------------------------------------------------------------------------
--------------------------------------------15151717-1515---------------
-------------------------------1414-16161717-------------171716161414/--
--------------1212-141416161717-----------------------------------------
--121214141515----------------------------------------------------------
------------------------------------------------------------------------


--t17p15p12-t17p15p12-t17p15p12-t17p15p12-t17p15p12-t17p15p12-t17p15p12-
------------------------------------------------------------------------
------------------------------------------------------------------------
------------------------------------------------------------------------
------------------------------------------------------------------------
------------------------------------------------------------------------


--t17p15p12-t19p15p12-t19p15p12-t19p15p12-t19p15p12-t20p15p12-t20p15p12-
------------------------------------------------------------------------
------------------------------------------------------------------------
------------------------------------------------------------------------
------------------------------------------------------------------------
------------------------------------------------------------------------


--t20p15p12-t20p15p12-bd-pb20^--rb-///--|
---------------------------bf-----------|
----------------------------------------|
----------------------------------------|
----------------------------------------|
----------------------------------------|


Riff 7-A                   GTR I&II x1
|-------------------------------------|
|-------------------------------------|
|-------------------------------------|
|--------------------------5-4--------|
|--87777877778778777787777-3-2-5------|
|------------------------------3------|
                           . . .

                             GTR I x2
|-------------------------------------|
|-------------------------------------|
|-------------------------------------|
|-------------------------------------|
|--87777877778778777787777-3322-------|
|------------------------------33-----|

                            GTR II x2
|-------------------------------------|
|-------------------------------------|
|-------------------------------------|
|--------------------------101099-----|
|--87777877778778777787777-------1010-|
|-------------------------------------|


Riff 7-B                        GTR I
|-------------------------------------|
|-------------------------------------|
|-------------------------------------|
|-------------------------5-4---------|
|-------------------------3-2-5-------|
|--1000010000100100010000-----3-------|


                               GTR II
|-------------------------------------|
|-------------------------------------|
|-------------------------------------|
|-------------------------------------|
|-------------------------3322--------|
|--1000010000100100010000-----33------|


Riff 7-C                      Gtr I&II
|-------------------------------------|
|-------------------------------------|
|-------------------------------------|
|---------------------------5-4-------|
|--3----3----3-2-3----3-----3-2-5-----|
|--10000100001-0-1000010000-----3-----|

Kill song on an E5 chord!


I'm not even going to bother with the song Structure.
Play it how you like.

Check out my other tabs by: Deicide, Obituary, Hypocrisy,


Important: The song above is NOT stored on the Chordie server. The original song is hosted at www.xguitar.com. Chordie works as a search engine and provides on-the-fly formatting. Chordie does not index songs against artists'/composers' will. To remove this song please click here.

This song is displayed as text-only. Transposing and tuning is only available for chordpro-songs.

Login - add to songbook

Rating click stars to rate

Layout
Accuracy

SHARE PAGE  




You need to log in to post comments