Guitar Tabs, Chords and Lyrics


Left to Rot    Hypocrisy



Greetings!

Left To Rot -
by Hypocrisy
from the album: Penetralia
Trascription by : Balsama (P. Mackay)
E-Mail address :  lord_balsama@hotmail.com

Tuning: C

Tab Notation:
~       Tremolo pick
p.m.... palm mute
......  Uncertain of how many times played

This Tablature was created with Tab Form Creator by Ugo Gasparri
ugo_er_mejo@geocities.com

* Riff1a
E-|----------------------------------------------------
B-|----------------------------------------------------
G-|----------------------------------------------------
D-|-2---5--2--8-7--2---5--2---3-3-3--------------------
A-|-2---5--2--8-7--2---5--2---3-3-3--------------------
E-|-0~--3--0~-6-5--0~--3--0~--1-1-1--------------------
p.m..      .       .      .
*
*
*Riff 1b
E-|----------------------------------------------------
B-|----------------------------------------------------
G-|----------------------------------------------------
D-|-2---5--2---8--2---5--2---3-3-3---------------------
A-|-2---5--2---8--2---5--2---3-3-3---------------------
E-|-0~--3--0~--6--0~--3--0~--1-1-1---------------------

*
*
*
Riff 2
E-|----------------------------------------------------
B-|----------------------------------------------------
G-|------4-5--------5-4--------4-5---------------------
D-|-2222-2-3-222222-3-2-222222-2-3-222222--5-4---------
A-|-2222-----222222-----222222-----222222--3-2---------
E-|-0000-----000000-----000000-----000000--------------
    ....     ......     ......     ......
*
*
*
* Riff 3
E-|----------------------------------------------------
B-|----------------------------------------------------
G-|------------4-5-------------------------------------
D-|-3-2--2222--2-3-222222-5-4--2-----------------------
A-|-1-0--2222------222222-3-2--2-----------------------
E-|------0000------000000------0-----------------------
         ....      ......
* I think this is right...Some of this riff is hard to hear on tape.
*
*
* Riff 4
E-|----------------------------------------------------
B-|----------------------------------------------------
G-|----------------------------------------------------
D-|----4-5-4---------4-5-4-----------------------------
A-|-2--2-3-2-5-4--2--2-3-2-5---------------------------
E-|-0--------3-2--0--------3---------------------------
    .        . .  .
*
*
*
* Riff 5
E-|----------------------------------------------------
B-|----------------------------------------------------
G-|----------------------------------------------------
D-|----------------------------------------------------
A-|----2-3-2~----------2-3-2~--------------------------
E-|-0~--------3~-2~-0~--------3------------------------
  These notes are probably power chorded, but that's your choice...
*
*
*
*Riff 6
E-|----------------------------------------------------
B-|----------------------------------------------------
G-|----------------------------------------------------
D-|-2--3--2--5-4--2--3--2--5-4-------------------------
A-|-2--3--2--3-2--2--3--2--3-2-5-----------------------
E-|-0~-1--0~------0~-1--0~-----3-----------------------
    .     .       .     .
*
*
*
* Riff 7
E-|----------------------------------------------------
B-|----------------------------------------------------
G-|----------------------------------------------------
D-|----------------------------------------------------
A-|----5-6-5~------------5-6-5~------------------------
E-|-3~---------6~-5~--3~--------3~---------------------
 you can also power chord these notes for added thickness....
*
*
*
* Riff 8
E-|----------------------------------------------------
B-|----------------------------------------------------
G-|----------------------------------------------------
D-|-9-8--4-5-4-----------------------------------------
A-|-7-6--2-3-2-----------------------------------------
E-|----------------------------------------------------

*
*
*
*Riff 9
E-|----------------------------------------------------
B-|----------------------------------------------------
G-|----------------------------------------------------
D-|----------------------------------------------------
A-|-7~-6~--2~-3~-2~------------------------------------
E-|----------------------------------------------------
 These could also be tremoloed power chords
*
*
*
*Riff 10
E-|----------------------------------------------------
B-|----------------------------------------------------
G-|----------------------------------------------------
D-|-222-222--------------------------------------------
A-|-222-222--------------------------------------------
E-|-000-000................----------------------------
   Pick this part in triplets
*
*                             *SOLO*
*       play riff 5 over the first part of the solo....
        then play riff 7 over second part (you'll hear the change)
*
E-|----------------------------------------------------
B-|----------------------------------------------------
G-|----------------------------------------------------
D-|----------------------------------------------------
A-|----------------------------------------------------
E-|----------------------------------------------------

* I believe that is all.  Enjoy! And please, let me know of any
corrections that I need to make.  I would be greatful if some
one would tab the solo  for me (especially the one from the Left
to Rot video on the "death is just the beginning II"...absolutely


Important: The song above is NOT stored on the Chordie server. The original song is hosted at www.xguitar.com. Chordie works as a search engine and provides on-the-fly formatting. Chordie does not index songs against artists'/composers' will. To remove this song please click here.

This song is displayed as text-only. Transposing and tuning is only available for chordpro-songs.

Login - add to songbook

Rating click stars to rate

Layout
Accuracy

SHARE PAGE  




You need to log in to post comments