Guitar Tabs, Chords and Lyrics


Actually It's Darkness    Idlewild



Actually It\'s Darkness - Idlewild
From the 2000 album \"100 Broken Windows\", released on Parlophone records
Tune guitars down 1 semitone: Eb Ab Db Gb Bb Eb

Guitar 1

Intro
---------------------------------------------------------------------
---------------------10--------------------------------10-------10---
----7---7---7-9-11--------------------7---7---7-9-11--------9--------
---------------------------------------------------------------------
---------------------------------------------------------------------
---------------------------------------------------------------------

Verse
-----------------------------------------------------------------------
---------------------10-------------------------10------------10-------
7-------7---7-9-11------------11---7---9---11--------9---11--------9---
-----------------------------------------------------------------------
----------------------------------------------------------------------- x4
-----------------------------------------------------------------------

Bridge
----------------------------------------------------------------------
----------------------------------------------------------------------
9---9---9---9---9---9-------7---14---14---12---12---11---11---7---7---
----------------------------------------------------------------------
7---7---7---7---7---7-------5---12---12---10---10---9----9----5---5---
----------------------------------------------------------------------

------------------------------------------------------------------------
------------------------------------------------------------------------
9---9---9---9---9---9-------7---14---14---12---12---11---11---12---12---
------------------------------------------------------------------------
7---7---7---7---7---7-------5---12---12---10---10---9----9----10---10---
------------------------------------------------------------------------

----------------------------------------------------------------------
----------------------------------------------------------------------
9---9---9---9---9---9-------7---14---14---12---12---11---11---7---7---
----------------------------------------------------------------------
7---7---7---7---7---7-------5---12---12---10---10---9----9----5---5---
----------------------------------------------------------------------

------------------------------------------------------------------------
------------------------------------------------------------------------
9---9---9---9---9---9-------7---11---11---11---11---12---12---11---11---
------------------------------------------------------------------------
7---7---7---7---7---7-------5---9----9----9----9----10---10---9----9----
------------------------------------------------------------------------

Chorus (play twice)
------------------------------------------------------------------------
------------------------------------------------------------------------
14---14---14---14---11---11---11---11---7---7---7---7---9---9---9---9---
------------------------------------------------------------------------
------------------------------------------------------------------------
------------------------------------------------------------------------

[bend up]
-------------------------------------------------------------------
-------------------------------------------------------------------
/14---------------11---------------7---7---7---7---9---9---9---9---
-------------------------------------------------------------------
-------------------------------------------------------------------
-------------------------------------------------------------------

Then play:
Verse
Bridge
Chorus
then there is the piano interlude
Then play:
Chorus
then this twice:
------------------------------------------------------------------------
------------------------------------------------------------------------
14---14---14---14---11---11---11---11---7---7---7---7---9---9---9---9---
------------------------------------------------------------------------
------------------------------------------------------------------------
------------------------------------------------------------------------

[bend up]
---------------------------------------------------------------------
---------------------------------------------------------------------
14/16---------------14---------------7---7---7---7---9---9---9---9---
---------------------------------------------------------------------
---------------------------------------------------------------------
---------------------------------------------------------------------

Guitar 2

Intro
----------------------------------------------------------------
----------------------------------------------------------------
----------------------------------------------------------------
----------------------------------------------------------------
----------------------------------------------------------------
----------------------------------------------------------------

Verse
----------------------------------------------------------------------
------------------------------------12---12---12----------------------
------------------------------------9----9----9--------12---12---12---
----7---7---7---7---5---4---0-------9----9----9--------12---12---12---
5---5---5---5---5---5----------------------------------10---10---10--- x4
----5---5---5---5---5-----------7-------------------------------------

Bridge
----------------------------------------------------------------
----------------------------------------------------------------
9---9---9---9---9---9---9---9---7---7---7---7---4---4---4---4---
7---7---7---7---7---7---7---7-----------------------------------
7---7---7---7---7---7---7---7---5---5---5---5---2---2---2---2--- x3
----------------------------------------------------------------

----------------------------------------------------------------
----------------------------------------------------------------
9---9---9---9---9---9---9---9---7---7---7---7---9---9---9---9---
7---7---7---7---7---7---7---7-----------------------------------
7---7---7---7---7---7---7---7---5---5---5---5---7---7---7---7---
----------------------------------------------------------------

Chorus (listen to song for rhythm)
----------------------------------------------------------------
----------------------------------------------------------------
7---------------------------------------------------------------
7---------------5---------------9---------------7---------------
5---------------5---------------9---------------7--------------- x4
----------------3---------------7---------------5---------------


Important: The song above is NOT stored on the Chordie server. The original song is hosted at www.xguitar.com. Chordie works as a search engine and provides on-the-fly formatting. Chordie does not index songs against artists/composers will. To remove this song please click here.

This song is displayed as text-only. Transposing and tuning is only available for chordpro-songs.

Login - add to songbook

Rating click stars to rate

Layout
Accuracy

SHARE PAGE  




You need to log in to post comments