Guitar Tabs, Chords and Lyrics


Listen to What You've Got    Idlewild



Band: Idlewild
Song: Listen to What You've Got
Album: 100 Broken Windows
Thom Mills dustbin_man@hotmail.com

------------------------------------------------------------------------------
------------------------------------------------------------------------------
-11-----------10--------------------------------------------------------------
--x------------x--------------------------------------------------------------
--9------------8--------------------------------------------------------------
------------------------------------------------------------------------------
 intro-strum these chords

------------------------------------------------------------------------------
------------------------------------------------------------------------------
------------------------------------------------------------------------------
------------------------------------------------------------------------------
-9--9--9--9--9--9--9--9--8--8--8--8--8--8--8--8-------------------------------
-6--6--6--6--6--6--6--6--6--6--6--6--6--6--6--6-------------------------------
 listen to what you've got

------------------------------------------------------------------------------
------------------------------------------------------------------------------
----------------6-------------------------------------------------------------
-4--------------6----------------4----------------8---------------------------
-4--------------4----------------4----------------8---------------------------
-2-------------------------------2----------------6---------------------------
 whats in these bad dreams   you might as well be talking backwards

----------------------------------|-------------------------------------------
----------------------------------|-------------------------------------------
----------------------------------|--11--11--11--10--10--10-------------------
-8-8-8-8-8-8-8-8-8-8-8-8-8--------|---x---x---x---x---x---x-------------------
-8-8-8-8-8-8-8-8-8-8-8-8-8--------|---9---9---9---8---8---8-------------------
-6-6-6-6-6-6-6-6-6-6-6-6-6--------|-------------------------------------------


Important: The song above is NOT stored on the Chordie server. The original song is hosted at www.xguitar.com. Chordie works as a search engine and provides on-the-fly formatting. Chordie does not index songs against artists'/composers' will. To remove this song please click here.

This song is displayed as text-only. Transposing and tuning is only available for chordpro-songs.

Login - add to songbook

Rating click stars to rate

Layout
Accuracy

SHARE PAGE  




You need to log in to post comments