Guitar Tabs, Chords and Lyrics


Mistake Pageant    Idlewild



Band: Idlewild
Song: Mistake Pageant
Album: 100 Broken Windows
Thom Mills dustbin_man@hotmail.com

capo at 4th fret for this song

------------------------------------------------------------------------------
------------------------------------------------------------------------------
----4--------4------4-------4-------------------------------------------------
------------------------------2-----------------------------------------------
-0-----0--0---------------------2---------------------------------------------
----------------0------0-0----------------------------------------------------
 intro/verse

------------------------------------------------------------------------------
------------------------------------------------------------------------------
------------------------------------------------------------------------------
------------2----------4----2----------2----------4----2----------------------
----------2---2------2---2--2--------2---2------2---2--2----------------------
--------0-------0--0--------0------0-------0--0--------0----------------------
 bridge   it was a mistake pageant   it was a mistake from the start

------------------------------------------------------------------------------
------------------------------------------------------------------------------
------------------------------------------------------------------------------
-----2----------4----2-----------7--------------------9-----------------------
---2---2------2---2--2-----------7--------------------9-----------------------
-0-------0--0--------0-----------5--------------------7-----------------------
 it was a mistake pageant  and i dont under stand the way that your living

------------------------------------------------------------------------------
------------------------------------------------------------------------------
------------------------------------------------------------------------------
--2------------7------------4-----------7-------------------------------------
--2------------7------------4-----------7-------------------------------------
--0------------5------------2-----------5-------------------------------------
 chorus-you've had bad luck

------------------------------------------------------------------------------
--------------2-----2-----------4------4--------------------------------------
------------------------------------------------------------------------------
------------2-----2-----2-----4------4-----4----------------------------------
----------0-----0-----0-----2------2-----2------------------------------------
------------------------------------------------------------------------------


Important: The song above is NOT stored on the Chordie server. The original song is hosted at www.xguitar.com. Chordie works as a search engine and provides on-the-fly formatting. Chordie does not index songs against artists'/composers' will. To remove this song please click here.

This song is displayed as text-only. Transposing and tuning is only available for chordpro-songs.

Login - add to songbook

Rating click stars to rate

Layout
Accuracy

SHARE PAGE  




You need to log in to post comments