Guitar Tabs, Chords and Lyrics


(I Am) What I Am Not   Idlewild

e -2-------------2---------------------------------


B ---------2-0-0---------2-0-----------------------


G ---4-3-4---------4-3-4---------------------------

D -------------------------------------------------
[G#5]Coming places, collecting careless,
[B5]Sentences say so i write them down,
So i am [E5]more than.
And you shood to, do [C#5]more every[F#5]where.
[G#5]Coming luck, you can surrender,
[B5]Its the only way to you to learn the alpha[E5]bet,
Made up of words you [C#5]never resist to [F#5]quote.
Pre-Chorus: E5 B5 Bb5 G#5

Riff (I Think!)

D -6-8-6-8b-6-8-6-8b-6-------------


[E5]If all this [B5]wisdom [Bb5]is  [G#5]true,
[E5]Then i say it can really have [B5]come [Bb5]from [G#5]you.

(Chorus)

[Bb5]I am what i am [G#5]not,
[Bb5]I am what i am [G#5]not,
[B5]There must be something [Bb5]more [G#5]than,
[Bb5]If i'm just a [G#5]thought, [B5]i'm not.

(Piano part)
B ---------12-
G -8-10-11----


[G#5]Faster than your destination,
[B5]Knowing where you really are,
Its what you always [E5]do,
Or is it when you [C#5]can,[F#5]
[G#5]Happiness didn't happen,
[B5]Sooner than the sound,
that calls to [E5]most of them mistakes,
that I [C#5]taught [F#5]you.

(Pre-Chorus)

[E5]If all this [B5]wisdom [Bb5]is  [G#5]true,
[E5]Then i say it can really have [B5]come [Bb5]from [G#5]you.

(Chorus)

[Bb5]I am what i am [G#5]not,
[Bb5]I am what i am [G#5]not,
[B5]There must be something [Bb5]more [G#5]than,
[Bb5]i am what i [G#5]am not.
[B5]If theres something [Bb5]more [G#5]than.

[Bb5]I am what i am [G#5]not,
[Bb5]I am what i am [G#5]not,
[B5]There must be something [Bb5]more [G#5]than,
[Bb5]If i am what i[G#5] am [C#5]not.[B5]
Solo
e ------------------------------------------
B -4-4-7-4-9-11-12-9--7-4-9-11-12-9---------
G ------------------------------------------
D ------------------------------------------



(Chorus)

[Bb5]I am what i am [G#5]not,
[Bb5]I am what i am [G#5]not,
[B5]There must be something [Bb5]more [G#5]than,
[Bb5]i am what i [G#5]am not.
[B5]If theres something [Bb5]more [G#5]than.

[Bb5]I am what i am [G#5]not,
[Bb5]I am what i am [G#5]not,
[B5]There must be something [Bb5]more [G#5]than,
[Bb5]If i am what i[G#5] am [C#5]not.[B5]
Finish slide from B5


================================================================


Band: Idlewild
Song: I Am What I Am Not
Album: The Remote Part
Thom Mills dustbin_man@hotmail.com

Intro:
E-|-2--------------2------------|
B-|---------2-0--0---------2-0--|
G-|---4-3-4----------4-3-4------|
D-|-----------------------------|
A-|-----------------------------|
E-|-----------------------------|


Verse: Guitar 1 - x2
E-|----2-------------------2---------------------|
B-|----------2-0------------------2-0------------|
G-|------3-4-----3-1--------4-3-4-----3-1--------|
D-|------------------4-4------------------4-4----|
A-|----------------------------------------------|
E-|----------------------------------------------|
E-|-2---------2-----------2---------------------|
B-|-------2-0---------2-0---------2-0-----------|
G-|---3-4-------4-3-4-------4-3-4-----3-1-------|
D-|---------------------------------------4-4---|
A-|---------------------------------------------|
E-|---------------------------------------------|


Verse: Guitar 2 - x2
E-|-------------------------------------------------------------|
B-|-------------------------------------------------------------|
G-|---------------------4-4-4-4-4-4-4-4-4-4---------------------|
D-|-6-6-6-6-6-6-6-6-6-6-4-4-4-4-4-4-4-4-4-4-2-2-2-2-2-2-2-2-2-2-|
A-|-6-6-6-6-6-6-6-6-6-6-2-2-2-2-2-2-2-2-2-2-2-2-2-2-2-2-2-2-2-2-|
E-|-4-4-4-4-4-4-4-4-4-4---------------------0-0-0-0-0-0-0-0-0-0-|
E-|---------------------|
B-|---------------------|
G-|-6-6-6-6-6-----------|
D-|-6-6-6-6-6-4-4-4-4-4-|
A-|-4-4-4-4-4-4-4-4-4-4-|
E-|-----------2-2-2-2-2-|


Bridge: Guitar 1 - x2
E-|----------------------------------------------------------|
B-|----------------------------------------------------------|
G-|---------------------4-------3---------3^r----------3^r---|
D-|-----2-----2---2-----4-------3-----6------------6---------|
A-|-----2-----2---2-2-2---2-1-1-------6------------6---------|
E-|-0-0---0-0---0-----------------4-4---4-----4--4--4--------|


Bridge: Guitar 2 - x2
E-|---------------------------------------------------------------|
B-|---------------------------------------------------------------|
G-|----(0)-(0)---(0)4-4-4-4-3-3-3-3--------(3)^r------------------|
D-|-2-2-2-2-2-2-2-2-4-4-4-4-3-3-3-3-6-6-6-6-6^---6--6-6/8-6-6/8^r-|
A-|-2-2-2-2-2-2-2-2-2-2-2-2-1-1-1-1-6-6-6-6-6----6--6-6---6-6-----|
E-|-0-0---0-0-0---0-----------------4-4---4------4--4-----4-------|


Chorus: Both Guitars
E-|--------------------------------------------------------------------------|
B-|--------------------------------------------------------------------------|
G-|-3-3-3-4-3---3-3-3-3-3-----------4--4-4-4-4-4-----3-3-3-4-3---3-3-3-4-3---|
D-|-3-3-3-4-3-6-3-3-3-3-3-6-6-6-6-6---4-4-4-4-4-4----3-3-3-4-3-6-3-3-3-4-3-6-|
A-|-1-1-1-2-1-6-1-1-1-1-1-6-6-6-6-6---2-2-2-2-2-2----1-1-1-2-1-6-1-1-1-2-1-6-|
E-|-----------4-----------4-4-4-4-4----------------------------4-----------4-|
E-|-------------------------------|
B-|-------------------------------|
G-|---------4---4-4-4-4-4-3-3-3-3-|
D-|-6-6-6-6---4-4-4-4-4-4-3-3-3-3-|
A-|-6-6-6-6---2-2-2-2-2-2-1-1-1-1-|
E-|-4-4-4-4-----------------------|


Interlude: Guitar 1
E-|---------------|
B-|---------------|
G-|---------------|
D-|---------------|
A-|---------------|
E-|-4-4-6-4-6-7-6-|


Interlude: Guitar 2
E-|------------|
B-|------------|
G-|------------|
D-|------------|
A-|------------|
E-|------------|


Verse: Guitar 1 - x2
E-|----2-------------------2---------------------|
B-|----------2-0------------------2-0------------|
G-|------3-4-----3-1--------4-3-4-----3-1--------|
D-|------------------4-4------------------4-4----|
A-|----------------------------------------------|
E-|----------------------------------------------|
E-|-2---------2-----------2---------------------|
B-|-------2-0---------2-0---------2-0-----------|
G-|---3-4-------4-3-4-------4-3-4-----3-1-------|
D-|---------------------------------------4-4---|
A-|---------------------------------------------|
E-|---------------------------------------------|


Verse: Guitar 2 - x2
E-|-------------------------------------------------------------|
B-|-------------------------------------------------------------|
G-|---------------------4-4-4-4-4-4-4-4-4-4---------------------|
D-|-6-6-6-6-6-6-6-6-6-6-4-4-4-4-4-4-4-4-4-4-2-2-2-2-2-2-2-2-2-2-|
A-|-6-6-6-6-6-6-6-6-6-6-2-2-2-2-2-2-2-2-2-2-2-2-2-2-2-2-2-2-2-2-|
E-|-4-4-4-4-4-4-4-4-4-4---------------------0-0-0-0-0-0-0-0-0-0-|
E-|---------------------|
B-|---------------------|
G-|-6-6-6-6-6-----------|
D-|-6-6-6-6-6-4-4-4-4-4-|
A-|-4-4-4-4-4-4-4-4-4-4-|
E-|-----------2-2-2-2-2-|


Bridge: Guitar 1 - x2
E-|----------------------------------------------------------|
B-|----------------------------------------------------------|
G-|---------------------4-------3---------3^r----------3^r---|
D-|-----2-----2---2-----4-------3-----6------------6---------|
A-|-----2-----2---2-2-2---2-1-1-------6------------6---------|
E-|-0-0---0-0---0-----------------4-4---4-----4--4--4--------|


Bridge: Guitar 2 - x2
E-|---------------------------------------------------------------|
B-|---------------------------------------------------------------|
G-|----(0)----------4-4-4-4-3-3-3-3---------3^(0)-----------------|
D-|-2-2-2-2-2-2-2-2-4-4-4-4-3-3-3-3-6-6-6-6-6^---6--6-6---6-6/8^r-|
A-|-2-2-2-2-2-2-2-2-2-2-2-2-1-1-1-1-6-6-6-6-6----6--6-6---6-6-----|
E-|-0-0---0-0-0---0-----------------4-4---4------4--4-----4-------|


Chorus: 2 Guitars
E-|--------------------------------------------------------------------------|
B-|--------------------------------------------------------------------------|
G-|-3-3-3-4-3---3-3-3-3-3-----------4--4-4-4-4-4-----3-3-3-4-3---3-3-3-4-3---|
D-|-3-3-3-4-3-6-3-3-3-3-3-6-6-6-6-6--4-4-4-4-4-4-----3-3-3-4-3-6-3-3-3-4-3-6-|
A-|-1-1-1-2-1-6-1-1-1-1-1-6-6-6-6-6---2-2-2-2-2-2----1-1-1-2-1-6-1-1-1-2-1-6-|
E-|-----------4-----------4-4-4-4-4----------------------------4-----------4-|
E-|-----------------------------------------------------------------------------------------|
B-|-----------------------------------------------------------------------------------------|
G-|---------4---4-4-4-4-4-3-3-3-3-3---3-3-3-4-3-----------4-4-4-4-4-4-4-4-4-4-4-4-3-3-3-3---|
D-|-6-6-6-6---4-4-4-4-4-4-3-3-3-3-3-6-3-3-3-4-3-6-6-6-6-6-4-4-4-4-4-4-4-4-4-4-4-4-3-3-3-3-6-|
A-|-6-6-6-6---2-2-2-2-2-2-1-1-1-1-1-6-1-1-1-2-1-6-6-6-6-6-2-2-2-2-2-2-2-2-2-2-2-2-1-1-1-1-6-|
E-|-4-4-4-4-------------------------4-----------4-4-4-4-4---------------------------------4-|
E-|--------------------------------------------|
B-|--------------------------------------------|
G-|-3-3-3-4-3---4-4-4---4---4---4---4---3-3-3--|
D-|-3-3-3-4-3-6-4-4---4---4---4---4---4-3-3-3--|
A-|-1-1-1-2-1-6-2-2---2---2-----2-2---2-1-1-1--|
E-|-----------4--------------------------------|


Solo: (if that's what you can call it) - Guitar 1
(Guitar 2 is silent)
E-|-----2---4-6-7-4----2---4-6-7-4-|
B-|-4-4---4--------------4---------|
G-|--------------------------------|
D-|--------------------------------|
A-|--------------------------------|
E-|--------------------------------|


Chorus: 2 Guitars
E-|--------------------------------------------------------------------------|
B-|--------------------------------------------------------------------------|
G-|-3-3-3-4-3---3-3-3-3-3-----------4--4-4-4-4-4-----3-3-3-4-3---3-3-3-4-3---|
D-|-3-3-3-4-3-6-3-3-3-3-3-6-6-6-6-6--4-4-4-4-4-4-----3-3-3-4-3-6-3-3-3-4-3-6-|
A-|-1-1-1-2-1-6-1-1-1-1-1-6-6-6-6-6---2-2-2-2-2-2----1-1-1-2-1-6-1-1-1-2-1-6-|
E-|-----------4-----------4-4-4-4-4----------------------------4-----------4-|
E-|-----------------------------------------------------------------------------------------|
B-|-----------------------------------------------------------------------------------------|
G-|---------4---4-4-4-4-4-3-3-3-3-3---3-3-3-4-3-------------4-4-4-4-4-4-4-4-4-4-4-3-3-3-3---|
D-|-6-6-6-6---4-4-4-4-4-4-3-3-3-3-3-6-3-3-3-4-3-6-6-6-6-6-4-4-4-4-4-4-4-4-4-4-4-4-3-3-3-3-6-|
A-|-6-6-6-6---2-2-2-2-2-2-1-1-1-1-1-6-1-1-1-2-1-6-6-6-6-6-2-2---2---2-----2---2-2-1-1-1-1-6-|
E-|-4-4-4-4-------------------------4-----------4-4-4-4-4---------------------------------4-|
E-|--------------------------------------------|
B-|--------------------------------------------|
G-|-3-3-3-4-3---4-4-4---4---4---4---4---3-3-3--|
D-|-3-3-3-4-3-6-4-4---4---4---4---4---4-3-3-3--|
A-|-1-1-1-2-1-6-2-2---2---2-----2-2---2-1-1-1--|
E-|-----------4--------------------------------|


Ending:
e-|--------------------------------|
B-|--------------------------------|
G-|-4--\---------------------------|
D-|-4--\---------------------------|
A-|-2--\---------------------------|
E-|--------------------------------|


Important: The song above is NOT stored on the Chordie server. The original song is hosted at www.xguitar.com. Chordie works as a search engine and provides on-the-fly formatting. Chordie does not index songs against artists'/composers' will. To remove this song please click here.

Text color:
Chord color:
Chord grids: 
Font size:    
Page size: 

B5 Bb5 C#5 E5 F#5 G#5
variations - click chord images

Login - add to songbook

Transpose chords

Tuning

Rating click stars to rate

Layout
Accuracy

SHARE PAGE  




You need to log in to post comments