Guitar Tabs, Chords and Lyrics


Jealousy    Iggy Pop



Artist: iggy pop
Title:  jealousy
Album:  american caesar
Transcribed by:  schmanzy
Email:  dancinmachine@o2.pl


main thing
-||---------------|------------------|-----------------------------||
-||-----0------2--|----0-----2--4-2--|-----0------2---4-2-0-2--0---||
-||-1------1------|-1-----1----------|-1------1------------------1-||
-||---------------|------------------|-----------------------------||
-||---------------|------------------|-----------------------------||
-||---------------|------------------|-----------------------------||

play it throughout almost the whole song,

except for a part "this isn't for the first time in my life...", it goes:

     D     A       Ab        D     A

-||--2-----0-------4-----|---2-----0-----||
-||--3-----2-------4-----|---3-----2-----||
-||--2-----2-------5-----|---2-----2-----||
-||--0-----2-------6-----|---0-----2-----||
-||-------(0)------6-----|--------(0)----||


Important: The song above is NOT stored on the Chordie server. The original song is hosted at www.xguitar.com. Chordie works as a search engine and provides on-the-fly formatting. Chordie does not index songs against artists/composers will. To remove this song please click here.

This song is displayed as text-only. Transposing and tuning is only available for chordpro-songs.

Login - add to songbook

Rating click stars to rate

Layout
Accuracy

SHARE PAGE  




You need to log in to post comments