Chordie logo


If You Still Hate Me    Ill Nino



Author/Artist: Ill Niño
Title:If You Still Hate Me
Album: Revolution-Revolucion
Transcribed by: wReXs7
Email: wReXs7@Yahoo.com

C tuning.
Just play along with the song to get the rhythm.
Feel free to make any other corrections/comments.

Intro
------------------------------------------------------------------------------
------------------------------------------------------------------------------
------------------------------------------------------------------------------
------------------------------------------------------------------------------
-0-0--------------0-0--------------0-0--------------0-0-----------------------
-0-0--------------0-0--------------0-0--------------0-0-----------------------

Bridge 1(Not too sure if this is correct, but it sounds good)
------------------------------------------------------------------------------
------------------------------------------------------------------------------
------------------------------------------------------------------------------
------------------------------------------------------------------------------
-1-0-1-1-0-1-0-1-1-0-1-0-1-1-0-1-0-----3--------------------------------------
-1-0-1-1-0-1-0-1-1-0-1-0-1-1-0-1-0-----3--------------------------------------

Bridge 2
------------------------------------------------------------------------------
------------------------------------------------------------------------------
------------------------------------------------------------------------------
------------------------------------------------------------------------------
-1-0----1-1-0----1-0----1-1-0----1-0----1-1-0----1-0----1-1-0-0-0-0-0-0-------
-1-0----1-1-0----1-0----1-1-0----1-0----1-1-0----1-0----1-1-0-0-0-0-0-0-------
                                                            ...........PM
Chorus 1
------------------------------------------------------------------------------
------------------------------------------------------------------------------
-15-15-15-17-17-17-19-19-19-20-20-20-20---------------------------------------
------------------------------------------------------------------------------
-13-13-13-15-15-15-17-17-17-18-18-18-18---------------------------------------
------------------------------------------------------------------------------

Chorus 2
------------------------------------------------------------------------------
------------------------------------------------------------------------------
------------------------------------------------------------------------------
------------------------------------------------------------------------------
------------------------------------------------------------------------------
-1-0-0-0-5*--------------11101-0-0-0-5*---------------------------------------
          *=harm         . . . . . . . . repeat

Build-up
------------------------------------------------------------------------------
------------------------------------------------------------------------------
------------------------------------------------------------------------------
------------------------------------------------------------------------------
-0---0------------------------------------------------------------------------
-0---0------------------------------------------------------------------------
 Just keep repeating

Ending
Guitar 1 plays Chorus 1, then Guitar 2 plays Chorus 1, then...

------------------------------------------------------------------------------
------------------------------------------------------------------------------
------------------------------------------------------------------------------
------------------------------------------------------------------------------
-1-0--------------------------------------------------------------------------


Important: The song above is NOT stored on the Chordie server. The original song is hosted at www.xguitar.com. Chordie works as a search engine and provides on-the-fly formatting. Chordie does not index songs against artists/composers will. To remove this song please click here.

This song is displayed as text-only. Transposing and tuning is only available for chordpro-songs.

Login - add to songbook

Rating click stars to rate

Layout
Accuracy

SHARE PAGE  




You need to log in to post comments