Guitar Tabs, Chords and Lyrics


A Sign for the Norse Hordes to Ride    Immortal



IMMORTAL: A sign for the norse hordes to ride
   4x
E||------------------------|------------------------||--------------------|
B||------------------------|------------------------||--------------------|
G||*-----------------------|-----------------------*||--3-----------------|
D||*-----------------------|-----------------------*||-----------4--------|
A||---7--------------5--6--|--7--------------8--6---||--8--------3--------|
E||---5--1-1-1-1-1-1-3--4--|--5--1-1-1-1-1-1-6--4---||--6--------1--------|
                      2x
----------------------||----------------------|--4--------2---4---2--| )
----------------6-----||--4--------5---4---5--|--3--------1---3---1--| ) Guitare2
--3--------2-------5--||--3--------4---3---4--|----------------------| )
----------------------||----------------------|----------------------|
--8--------7----7--7--||--6--------7---6---7--|--6--------4---6---4--| ) Guitare1
--6--------5----5--5--||--6--------7---6---7--|--6--------4---6---4--| )

--4--------5---7---5--|--4--------2---4---2--|--1--------2---1---2--| )
--3--------4---6---4--|--3--------1---3---1--|--0--------1---0---1--| )
----------------------|----------------------|----------------------|
---------------4------|----------------------|----------------------|
--6--------7---4---7--|--6--------4---6---4--|--3--------4---3---4--| )
--6--------7-------7--|--6--------4---6---4--|--3--------4---3---4--| )

--1--------2--------|--4--------5---4---5--|--4--------2---4---2--| )
--0--------1--------|--3--------4---3---4--|--3--------1---3---1--| )
--------------------|----------------------|----------------------|
--------------------|----------------------|----------------------|
--3--------4--------|--6--------7---6---7--|--6--------4---6---4--| )
--3--------4--------|--6--------7---6---7--|--6--------4---6---4--| )

--4--------5---7---5--|--4--------2---4---2--|| )
--3--------4---6---4--|--3--------1---3---1--|| )
----------------------|----------------------||
---------------4------|----------------------||
--6--------7---4---7--|--6--------4---6---4--|| )


Important: The song above is NOT stored on the Chordie server. The original song is hosted at www.xguitar.com. Chordie works as a search engine and provides on-the-fly formatting. Chordie does not index songs against artists'/composers' will. To remove this song please click here.

This song is displayed as text-only. Transposing and tuning is only available for chordpro-songs.

Login - add to songbook

Rating click stars to rate

Layout
Accuracy

SHARE PAGE  




You need to log in to post comments