Chordie logo


Werd Ich am Galgen hochgezogen    In Extremo



In Extremo - Werd ich am Galgen hochgezogen
Tabbed By: guitarfreak
Email: heinz-werner.hild@freenet.de

Tuning: Drop D (D A D G B E)

Album: Verehrt und angespien (1999)

Bagpipe theme

E|--------------------------------------------------||
B|--------------------------------------------------||
G|--------------------------------------------------||
D|-7--7--7--7--7--7--7--7-------------------------7-||
A|-7--7--7--7--7--7--7--7--2222222222222222222222-7-||
D|-7--7--7--7--7--7--7--7--2222222222222222222222-7-||
pm                         ......................


Bridge to Verse
                        3x then:
E|------------------------|----------------------||
B|------------------------|-----------------17br-||
G|------------------------|----------------------||
D|------------------------|----------------------||
A|-2-2-2-2-2-2-2-2-2--4-5-|-2-2-2-2-2-2-2-2------||
D|-2-2-2-2-2-2-2-2--------|-2-2-2-2-2-2-2-2------||
pm . . . . . . . .          . . . . . . . .


Verse

E|-----------------------------------------------||
B|-----------------------------------------------||
G|---------------------4-4---4--4----------------||
D|---------------------4-4---4--4---7----5--4--2-||
A|-222222222222222222--2-2---2--2---7----5--4--2-||
D|-222222222222222222---------------7----5--4--2-||
pm ..................


After Verse 2
                                                                                                2x
E|-----------------------------------------------------------------------------------------------||
B|-----------------------------------------------------------------------------------------------||
G|-----------------------------------------------------------------------------------------------||
D|-7-7-7--7--7--7-7-7--7----7-7-7--7--7--7-7-7--7------------------------------------------------||
A|-7-7-7--7--7--7-7-7--7----7-7-7--7--7--7-7-7--7----7777777777777777777777777777777777777777777-||
D|-7-7-7--7--7--7-7-7--7----7-7-7--7--7--7-7-7--7----7777777777777777777777777777777777777777777-||
pm                                                   ...........................................


Bagpipe arranged for Guitar

Mainriff

E|-17-17-12--12-14-15-14-12--17-17-12--12-14-15-14-12--12-12--10-7--12--12--10--10--7-8--5-7--8-5-||
B|------------------------------------------------------------------------------------------------||
G|------------------------------------------------------------------------------------------------||
D|------------------------------------------------------------------------------------------------||
A|------------------------------------------------------------------------------------------------||
D|------------------------------------------------------------------------------------------------||


After Verse 2

E|-8-8-8--5-7-8-10-8-7-5--5-7-8-8--7-5-3-5-5--5-7-8-8-8--5-7-8-10-8-7-5--5-7-8-8--7-5-3-5-5-||
B|------------------------------------------------------------------------------------------||
G|------------------------------------------------------------------------------------------||
D|------------------------------------------------------------------------------------------||
A|------------------------------------------------------------------------------------------||
D|------------------------------------------------------------------------------------------||

E|-12--10-8-10--8-7-8--10-8-7-5--7-8-7-5-3--8-10-12--10-8-7-5-3-5-||
B|----------------------------------------------------------------||
G|----------------------------------------------------------------||
D|----------------------------------------------------------------||
A|----------------------------------------------------------------||


Important: The song above is NOT stored on the Chordie server. The original song is hosted at www.xguitar.com. Chordie works as a search engine and provides on-the-fly formatting. Chordie does not index songs against artists/composers will. To remove this song please click here.

This song is displayed as text-only. Transposing and tuning is only available for chordpro-songs.

Login - add to songbook

Rating click stars to rate

Layout
Accuracy

SHARE PAGE  




You need to log in to post comments