Chordie logo

Behind Space    In Flames



tabbed by carl
hazardsinc@aol.com

. - palm mute / - slide up to
\ - slide down to ~ - vibrato
h - hammer on b - bend
p - pull off Suffixes for bend
ph - pinch harmonic f - full bend h - half bend
* - see comment r - release t - tap bend
X - percussion mute ~ - vibrato bend
@ - slight palm mute () - ghost note, sustained note
" - tremolo pick until next note

C tuning (C,F,A#,D#,G,C)

Riff A
|------------------------------------|
|---55553355556666------55553355556~-|
|------------------------------------|Gtr I
|------------------------------------|
|-0------------------0---------------|
|------------------------------------|
| |
|------------------------------------|
|------------------------------------|
|---55554455557777------55554455557~-|Gtr II
|------------------------------------|
|-0------------------0---------------|
|------------------------------------|


|--------------------------------------------------|
|--------------------------------------------------|
|----999999-7777-10101010-----999999-10101010-7777-|Gtrs I
|----999999-7777-10101010-----999999-10101010-7777-| & II
|----777777-5555--8-8-8-8-----777777--8-8-8-8-5555-|
|-0------------------------0-----------------------|

Repeat Riff A (1 Time)

Riff B
|-------------------------------------------------------------|
|-------------------------------------------------------------|
|---------------7-------------7-------------------------------|Gtr I
|-7------9-------------10------------10-----9----7----9----10-|
|----0-0----0-0----0-0----0-0----0-0----0-0----0----0----0----|
|-------------------------------------------------------------|
| |
|-------------------------------------------------------------|
|-------------------------------------------------------------|
|---------------10------------10------------------------------|Gtr II
|-10-----12------------14------------14-----12---10---12---14-|
|----0-0----0-0----0-0----0-0----0-0----0-0----0----0----0----|
|-------------------------------------------------------------|

Repeat Riff B.1 (1 time)

Riff C
|--------------------------------------------------|
|--------------------------------------------------|
|--------------------------------------------------|Gtr I
|--------------------------------------------------|
|--------------------------------------------------|
|-5----7----/10---8~---10---8~-----7----5---7----8-|
| |
|--------------------------------------------------|
|--------------------------------------------------|
|--------------------------------------------------|Gtr II
|--------------------------------------------------|
|------5----/8----7~---8----7~-------------------7-|
|-8--------------------------------10---8---10-----|

Repeat Riff C (1 time)
Repeat Riff A (2 times)

Riff D
|-----------------------------------------------------------------------|
|-----------------------------------------------------------------------|
|-----------------45---------------------------22225555-----------------|Gtr
|--------23222222---77777735-33333333-00000000----------22220000--------| I
|-000000--------------------------------------------------------3333----|
|-------------------------------------------------------------------3333|
| |
|-----------------------------------------------------------------------|
|-------------------------------------------------------------------3333|
|-----------------4455555544-22222222-------------------444422225555----|Gtr
|--------23222222---------------------33333333-00000000-----------------| II
|-000000----------------------------------------------------------------|
|-----------------------------------------------------------------------|
| |
|-----------------------------------------------------------------------|
|---------------------------------------333333---333333-----------------|
|---------------------------------------222222---222222-----------------|Gtr
|---222222------------222222----------0--------0------------------------|III
|-0-000000---222222-0-000000---333333-----------------------------------|
|----------0-000000----------1-111111-----------------------------------|
. . . . . .

|-----------------------------------------------------------------------|
|-----------------------------------------------------------------------|
|-----------------45---------------------------22225555-----------------|Gtr
|--------23222222---77777735-33333333-00000000----------22220000-----5~-| I
|-000000--------------------------------------------------------3333----|
|-----------------------------------------------------------------------|
| |
|-----------------------------------------------------------------------|
|--------------------------------------------------------------------3~-|
|-----------------4455555544-22222222-------------------444422225555----|Gtr
|--------23222222---------------------33333333-00000000-----------------| II
|-000000----------------------------------------------------------------|
|-----------------------------------------------------------------------|
| |
|-----------------------------------------------------------------------|
|---------------------------------------333333---333333-----------------|
|---------------------------------------222222---222222-----------------|Gtr
|---222222------------222222----------0--------0------------------------|III
|-0-000000---222222-0-000000---333333-----------------------------------|
|----------0-000000----------1-111111-----------------------------------|
. . . . . .


Repeat Riff D (1 time)


Riff E
|------------------------------------------------------------------|
|------------------------------------------------------------------|
|---------------------------------44445555222255554444555522225~---|Gtr I
|-----0000333322220000333355552222---------------------------------|
|-0000-------------------------------------------------------------|
|------------------------------------------------------------------|
| ............................ |
|------------------------------------------------------------------|
|------------------------------------------------------------------|
|-----222244445555----5555444422224444444444445555-----------------|Gtr II
|-----------------3333------------222222222222333377775555---------|
|-0000--------------------------------------------555533335555-----|
|-------------------------------------------------------------6~---|
............................
Repeat Riff E (1 time)

Riff F.1
|------------------------------------------|
|------------------------------------------|
|--2--4-5-2------2------2-4--------4-5-4---|Gtrs I
|-----------3--5---3-5------5-2~-6-------5-| & II
|------------------------------------------|
|------------------------------------------|
| |
|------------------------------------------|
|------------------------------------------|
|--2---------------------------------------|Gtr III
|--2--------3--------5---------2-222-2-2-2-|
|--0--------3--------5---------2-222-2-2-2-|
|-----------1--------3---------0-000-0-0-0-|
... . . .

Repeat Riff F.1 (1 time)

Riff F.2
|------------------------------------------|
|------------------------------------------|
|--2--4-5-2------2------2-4--------4-5-4---|Gtr I
|-----------3--5---3-5------5-2~-6-------5-|
|------------------------------------------|
|------------------------------------------|
| |
|------------------------------------------|
|-------5----------------------------5-----|
|--5--7---5----4-5---4--5-7-4----4-7---7-4-|Gtr II
|-----------7------7----------5~-----------|
|------------------------------------------|
|------------------------------------------|
| |
|------------------------------------------|
|------------------------------------------|
|--2---------------------------------------|Gtr III
|--2--------3--------5---------2-222-2-2-2-|
|--0--------3--------5---------2-222-2-2-2-|
|-----------1--------3---------0-000-0-0-0-|
... . . .

Repeat Riff F.2 (1 time)

Riff G
|---------------------------------------------|
|---------------------------------------------|
|--2------------------------------------------|Gtrs I
|--2--------3-3-3--------5--------2-222-2-2-2-| & II
|--0--------3-3-3--------5--------2-222-2-2-2-|
|-----------1-1-1--------3--------0-000-0-0-0-|
... . . .
Repeat Riff G (1 time)
Repeat Riff A (2 times)
Repeat Riff B (2 times)
Repeat Riff C (2 Times)

Riff H.1
|------------------------------------------------------------------|
|------------------------------------------------------------------|
|---------------------------------3---------------3-3--------------|Gtr I
|-2-2-------------2-2-------------3---------------3-3--------------|
|-2-2-------------2-2-------------1---------------1-1--------------|
|-0-0-------------0-0----------------------------------------------|
| |
|------------------------------------------------------------------|
|------------------------------------------------------------------|
|------------------------------------------------------------------|Gtr II
|------------------------------------------------------------------|
|---2---2---2---2---2---2---2---2---1---1---1---1---1---1---1---1--|
|-0---3---0---3---0---3---0---3---0---3---0---3---0---3---0---3----|
. . . . . . . . . . . . . . . .

Riff H.2
|------------------------------------------------------------------|
|------------------------------------------------------------------|
|---------------------------------3---------------3-3--------------|Gtr I
|-2-2-------------2-2-------------3---------------3-3--------------|
|-2-2-------------2-2-------------1---------------1-1--------------|
|-0-0-------------0-0----------------------------------------------|
| |
|------------------------------------------------------------------|
|------------------------------------------------------------------|
|---------------------------------3---------------3-3--------------|Gtr II
|---------------------------------3---------------3-3--------------|
|---2---2---2---2---2---2---2---2-1---------------1-1--------------|
|-0---3---0---3---0---3---0---3------------------------------------|
. . . . . . . .


Riff I
|---------------19----------------18-------------------------------|
|-17------20-----------------------------20---17-------------------|
|-------------------------------------------------------------19---|Key
|------------------------------------------------------------------|board
|------------------------------------------------------------------|
|------------------------------------------------------------------|
| |
|------------------------------------------------------------------|
|------------------------------------------------------------------|
|------------------------------------------------------------------|Gtrs I
|------------------------------------------------------------------| & II
|-------2-------2-------2---2---2---1---1---1---1---1---1---1---1--|
|-0-2-3---0-2-3---0-2-3---0---3---0---2---0---2---0---2---0---2----|


|---------------19-------24-------18-------------------------------|
|-17------20-----------------------------20---17-------------------|
|------------------------------------------------------------------|Key
|------------------------------------------------------------------|board
|------------------------------------------------------------------|
|------------------------------------------------------------------|
| |
|------------------------------------------------------------------|
|------------------------------------------------------------------|

|------------------------------------------------------------------|Gtrs I
|------------------------------------------------------------------| & II
|-------2-------2-------2---2---2---1---1---1---1---1---1---1---1--|
|-0-2-3---0-2-3---0-2-3---0---3---0---2---0---2---0---2---0---2----|



Riff J
|---------------------------------------------2~--------------2~---|
|------------------------------------------------------------------|
|-2---4-5~--2-5~--2---4-5~--2-5~--4~---------------4~--------------|Gtr I
|------------------------------------------4---------------4-------|
|------------------------------------------------------------------|
|------------------------------------------------------------------|
| |
|---------------------------------------------7~--------------7~---|
|------------------------------------------------------------------|
|-5---7-9~--5-9~--5---7-9~--5-9---8~---------------8~--------------|Gtr II
|------------------------------------------9---------------9-------|
|------------------------------------------------------------------|
|------------------------------------------------------------------|
| |
|------------------------------------------------------------------|
|------------------------------------------------------------------|
|------------------------------------------------------------------|Gtr III
|---2---2---2---2---2---2---2---2---1---1---1---1---1---1---1---1--|
|-0---3---0---3---0---3---0---3---0---3---0---3---0---3---0---3----|
|------------------------------------------------------------------|
. . . . . . . . . . . . . . . .

Repeat Riff J (1 Time)

Solo
|-----------------h----------------------h------|
|-------------4--4-5-4~--------------4--4-5-4~--|
|---------4-5--------------------4-5------------|Gtr I
|---4-5-7------------------4-5-7----------------| (w/ Octave Pedal)
|-7----------------------7----------------------|
|-----------------------------------------------|
| |
|-----------------------------------------------|
|-----------------------------------------------|
|-----------------------------------------------|Gtr II
|-2-----------6----------2-----------6----------|
|-2-----------6----------2-----------6----------|
|-0-----------4----------0-----------4----------|

pp pp pp pp hp
|--pp--pp--pp--pp-----------------420-420-420-420--/9--797--------|
|-454-131-010-131-5-----4----5------------------------------------|
|-----------------------------------------------------------------|Gtr I
|-----------------------------------------------------------------|
|-----------------------------------------------------------------|
|-----------------------------------------------------------------|
| |
|--pp--pp--pp--pp------------------pp--pp--pp--pp-------hp--------|
|-454-131-010-131-5-----4----5----542-542-542-542--/9--797--------|
|-----------------------------------------------------------------|Gtr II
|-----------------------------------------------------------------|
|-----------------------------------------------------------------|
|-----------------------------------------------------------------|
| |
|-----------------------------------------------------------------|
|-----------------------------------------------------------------|
|-2-----2-----2---2-----2-----2---6---6---6---6---6-----6-----6---|Gtr III
|-2-----2-----2---2-----2-----2---6---6---6---6---6-----6-----6---|
|-0-0-0-0-0-0-0-0-0-0-0-0-0-0-0-0-4-4-4-4-4-4-4-4-4-4-4-4-4-4-4-4-|
|-----------------------------------------------------------------|


Repeat Last Line Again (1 time)

hp hp
|-7----575--------8----75875875----7~---------575----------------|
|--------------------------------------------------8----7----5\--|
|----------------------------------------------------------------|Gtr I
|----------------------------------------------------------------|
|----------------------------------------------------------------|
|----------------------------------------------------------------|
| |
|-7----575--------8----75875875----------------------------------|
|----------------------------------------------hp----------------|
|----------------------------------4~---------242----------------|Gtr II
|--------------------------------------------------5----4----2\--|
|----------------------------------------------------------------|
|----------------------------------------------------------------|
| |
|----------------------------------------------------------------|
|----------------------------------------------------------------|
|-2-----5------5---2-----5-----5-----2----4-----4-----2----4---4-|Gtrs III
|----------------------------------------------------------------| & IV
|---0-0---0-0----0---0-0---0-0---0-0---0-0--0-0---0-0---0-0--0---|
|----------------------------------------------------------------|


hp hp
|-7----575--------8----75875875----7~---------575----------------|
|--------------------------------------------------8----7----5\--|
|----------------------------------------------------------------|Gtr I
|----------------------------------------------------------------|
|----------------------------------------------------------------|
|----------------------------------------------------------------|
| |
|-7----575--------8----75875875----------------------------------|
|----------------------------------------------hp----------------|
|----------------------------------4~---------242----------------|Gtr II
|--------------------------------------------------5----4----2\--|
|----------------------------------------------------------------|
|----------------------------------------------------------------|
| |
|----------------------------------------------------------------|
|----------------------------------------------------------------|
|-2-----5------5---2-----5-----5-----2----4-----4-----2----4---4-|Gtr III
|----------------------------------------------------------------|
|---0-0---0-0----0---0-0---0-0---0-0---0-0--0-0---0-0---0-0--0---|
|----------------------------------------------------------------|
| |
|----------------------------------------------------------------|
|----------------------------------------------------------------|
|-5-----9------9---5-----9-----9-----4----7-----7-----4----7---7-|Gtr IV
|----------------------------------------------------------------|
|---0-0---0-0----0---0-0---0-0---0-0---0-0--0-0---0-0---0-0--0---|
|----------------------------------------------------------------|



|-12------12------12--------------16--16-------------------------|
|-15fb--+r15fb----15---------19fb-----19fb--""--""---""--""------|
|------------|*****|---------------------------------------------|Gtr I
|--------------keep----------------------------------------------|
|--------------bent----------------------------------------------|
|----------------------------------------------------------------|
| |
|----------------------------------------------------------------|
|----------------------------------------------------------------|
|----------------------------------------------------------------|Gtr II
|-2------------(2)----------------6-------------(6)--------------|
|-2------------(2)----------------6-------------(6)--------------|
|-0------------(0)----------------4-------------(4)--------------|


|-12---12-12----(12)----15-12----12----------------------|
|-15fb----15fb--(15fb)--------15----15-12-15-12----12----|
|-----------------------------------------------15----15-|Gtr I
|--------------------------------------------------------|
|--------------------------------------------------------|
|--------------------------------------------------------|
| |
|--------------------------------------------------------|
|--------------------------------------------------------|
|--------------------------------------------------------|Gtr II
|-2-------------------------(2)--------------------------|
|-2-------------------------(2)--------------------------|
|-0-------------------------(0)--------------------------|


|--------------------------------------------------------|
|--ph----p-h-p-------------------------------------------|
|-131213-13121413------------12---------p----------------|Gtr I
|--------------------------14--14-----141312-------------|
|-------------------------------------------141211~------|
|--------------------------------------------------------|
| |
|--------------------------------------------------------|
|--------------------------------------------------------|
|--------------------------------------------------------|Gtr II
|-6-------------------------(6)--------------------------|
|-6-------------------------(6)--------------------------|
|-4-------------------------(4)--------------------------|


Repeat Riff A (1.5 times)


Riff K
|---------------------------------------------------|
|-----------------------------------------------5~--|
|----999999-7777-10101010-----999999--55-4--5-7-----|Gtr I
|----999999-7777-10101010-----999999----------------| 
|----777777-5555--8-8-8-8-----777777----------------|
|-0------------------------0------------------------|
| |
|---------------------------------------------------|
|---------------------------------------------------|
|----999999-7777-10101010-----999999----------------|Gtr II
|----999999-7777-10101010-----999999--77------9-10~-| 
|----777777-5555--8-8-8-8-----777777-----10-8-------|
|-0------------------------0-----------------------


Important: The song above is NOT stored on the Chordie server. The original song is hosted at www.xguitar.com. Chordie works as a search engine and provides on-the-fly formatting. Chordie does not index songs against artists/composers will. To remove this song please click here.

This song is displayed as text-only. Transposing and tuning is only available for chordpro-songs.

Login - add to songbook

Rating click stars to rate

Layout
Accuracy

SHARE PAGE  



You need to log in to post comments