Chordie logo


Evil in a Closet    In Flames



In Flames - Evil in a Closet(Soundtrack to Your Escape)
tabbed by: Tyler Strickland
this is a great song that took me and a friend almost all night to figure out and tab
so i hope you enjoy and rate well.


Intro
|--------5----------------------------|
|--------5----------------------------|
|--------------------5-4------4h5p4-4-|
|------7-----------5---5----5------7--|
|----7-----------3--------------------|
|--5----------------------------------|

|--------5----------------------------|
|--------5----------------------------|
|--------------------5-4------4h5--4--|
|------7-----------5---5----5-----5---|
|----7-----------3--------------------|
|--5----------------------------------|

|--------5----------------------------|
|--------5----------------------------|
|--------------------5-4------4h5p4-4-|
|------7-----------5---5----5------7--|
|----7-----------3--------------------|
|--5----------------------------------|

|--------5----------------------------|
|--------5-----------------------5----|
|---------------------0---------5-5---|
|------7------------4--4-------7---7--|
|----7-----------3s5-----5~---7-------|
|--5-------------------------5--------|


Verse
|--------5----------------------------|
|--------5----------------------------|
|--------------------5-4------4h5p4-4-|
|------7-----------5---5----5------7--|
|----7-----------3--------------------|
|--5----------------------------------|

|--------5----------------------------|
|--------5----------------------------|
|--------------------5-4------4h5--4--|
|------7-----------5---5----5-----5---|
|----7-----------3--------------------|
|--5----------------------------------|

|--------5----------------------------|
|--------5----------------------------|
|--------------------5-4------4h5p4-4-|
|------7-----------5---5----5------7--|
|----7-----------3--------------------|
|--5----------------------------------|

|--------5----------------------------|
|--------5-----------------------5----|
|---------------------0---------5-5---|
|------7------------4--4-------7---7--|
|----7-----------3s5-----5~---7-------|
|--5-------------------------5--------|


Pre-Chorus
|-------------------------------------|
|---------6---------------------------|
|-------7---7---7----------10---9p7h9-|
|-----7-------7---------10------7-----|
|-5-------------------8---------------|
|-------------------------------------|

|-------------------------------------|
|----5---3h5p3-3---------7------------|
|----5--------5----------9------------|
|------------------------9------------|
|-3-------------------7---------------|
|-------------------------------------|

|-------------------------------------|
|--------3--------------------6-------|
|------3---3---3------------7---7---7-|
|----3-------3------------7-------7---|
|-1-------------------5---------------|
|-------------------------------------|

|-------------------------------------|
|--------7----------------------------|
|------9---9---9--------------9-------|
|----9-------9--------------10-10--10-|
|-7-----------------------10-----10---|
|---------------------7s8-------------|


Fill 1
|-------------------------|
|-------6-5-------5h6-5h6-|
|-------7-7---------------|
|-------7-7-----7---------|
|----7--------------------|
|-5-----------------------|


Pre-Chorus: 
|-------------------------------------|
|--16~-----------------15~------------|
|-------------------------------------|
|-------------------------------------|
|-------------------------------------|
|-------------------------------------|
|                                     |
|                                     |
|-5-------------------8---------------|
|-6-------------------8---------------|
|-7-------------------10--------------|
|-7-------------------10--------------|
|-5-------------------8---------------|
|-------------------------------------|

we couldn't get the little part after this.
i'll add it as soon as i get it down.


Chorus
|---------------------------------|
|---------------------------------|
|---------------------------------|
|-7-7-7-7-7-7-7-7-3-3-3-3-3-3-3-3-|
|-5-5-5-5-5-5-5-5-1-1-1-1-1-1-1-1-|
|---------------------------------|

|---------------------------------|
|---------------------------------|
|---------------------------------|
|-5-5-5-5-5-5-5-5-2-2-2-2-2-2-2-2-|
|-3-3-3-3-3-3-3-3-0-0-0-0-0-0-0-0-|
|---------------------------------|

|---------------------------------|
|---------------------------------|
|---------------------------------|
|-3-3-3-3-3-3-3-3-----------------|
|-1-1-1-1-1-1-1-1-3-3-3-3-3-3-3-3-|
|-----------------1-1-1-1-1-1-1-1-|

|---------------------------------|
|---------------------------------|
|---------------------------------|
|---------------------------------|
|-2-2-2-2-2-2-2-2-5-5-5-5-5-5-5-5-|
|-0-0-0-0-0-0-0-0-3-3-3-3-3-3-3-3-| 



Bridge:
|---------------------------------|
|---------------------------------|
|---------------------------------|
|-2h3--3---xx-x---2h3-3-2-2h3-3-3-|
|-5----5---xx-x---5---5-5-5---5-5-|
|---------------------------------|

|---------------------------------|
|---------------------------------|
|---------------------------------|
|-0h2--2---xx-x-------------------|
|-3----3---xx-x---0h2-2h3-3s5-5-5-|
|-----------------0---0h1-1s3-3-3-| 

Interlude
|---------------------------------|
|----13~------------13h15p13~-----|
|--------------12s14--------------|
|-15--------15--------------------|
|---------------------------------|
|---------------------------------|

|---------------------------------|
|---------------------------------|
|-12s15--15-14-12-----------------|
|----------------15--14h15p14-----|
|-----------------------------15~-|
|---------------------------------|

|---------------------------------|
|---------------------------------|
|--------14--12------14~h15p14~---|
|----15---------15----------------|
|---------------------------------|
|---------------------------------|

|---------------------------------|
|----13~------------13h15p13~-----|
|--------------12s14--------------|
|-15--------15--------------------|
|---------------------------------|
|---------------------------------|

|----------------------------------|
|-15s18-17-15----------18~-18s20-17|
|------------17-15---17------------|
|------------------15--------------|
|----------------------------------|
|----------------------------------|

|----------------------------------|
|--------18--17--15--17--18-20~----|
|--15-17---------------------------|
|----------------------------------|
|----------------------------------|
|----------------------------------|



Outro
|------------|
|------6-5---|
|------7-7---|
|---7--7-7---|
|-5----------|
|------------|


Important: The song above is NOT stored on the Chordie server. The original song is hosted at www.xguitar.com. Chordie works as a search engine and provides on-the-fly formatting. Chordie does not index songs against artists/composers will. To remove this song please click here.

This song is displayed as text-only. Transposing and tuning is only available for chordpro-songs.

Login - add to songbook

Rating click stars to rate

Layout
Accuracy

SHARE PAGE  




You need to log in to post comments