Guitar Tabs, Chords and Lyrics


In Search for 1    In Flames



IN SEARCH FOR I

Tuning: Drop A# (A# F A# D# G C)

Intro:
-------------------------------------------------------------
-------------------------------------------------------------
-------------------------------------------------------------
------------------------7---5-----------7---5--------7---5---
--5-------8---7---8-----------8-7-----------------8----------
----0-0-0---0---0---0-0---0-------7-7-7---7---7-7-8----8---0-
    . . .   .   .   . .   .       . . .   .   .        .   .

---------------------------------------------------------
---------------------------------------------------------
---------------------------------------------------------
------------------------7---5-----------7---5------------
--5-------8---7---8-----------8-7-----------------8--10--
----0-0-0---0---0---0-0---0-------7-7-7---7---7-7-8--10--
    . . .   .   .   . .   .       . . .   .   .       

Intro 2:
-----------------------------------------------------------
-----------------------------------------------------------
------------------------------5---------------5------------
--3-----1-3---6---6-----5h6-------6-----5h6-------------5--
----------------4---4-4-----4---4---------------66666888---
----3-3-----3-----------------------4-4-----4--------------
    . .     .   .   . .     .   .   . .     .

Verse:
------------------------------     ----------------------------
------------------------------     ----------------------------
------------------------------     ----------------------------
------------------------------ x3  --5-5-5-3-3-----------------
--5-----3h5-------------------     --5-5-5-3-3-----------------
----0-0-----3_6-5-0-0-000-000-     --5-5-5-3-3--3-3-3-333-333--
    . .           . . ... ...                   . . . ... ...

Chorus:
-------------------------------
-------------------------------
----------------------------3*-
----------------------7--5--3*-
--0-0---0-0-----0-0-0-8--7--1*-
--0-0---0-0-----0-0-0----------
  . .   . .     . . .

Solo rythm:
----------------------------------------------
----------------------------------------------
------------------------------------------5---
---------------------------------------3--5---
----------8---6---8------------8---6---3--3---
--3-3-3-3---3---3------3-3-3-3---3---3-3------
  . . . .   .   .      . . . .   .   .

Outro:
-------------------------------------------
-------------------------------------------
----------------------3--2---3-3-3-3-3-5---
----------------------3--2---3-3-3-3-3-5---
-----------------7h8--1--0---1-1-1-1-1-3---
--0--0-3h5--7--7---------------------------
                             . . . . .

-------------------------------------------
-------------------------------------------
----------------------3--2---3-3-3-3-5-----
----------------------3--2---3-3-3-3-5-----
-----------------7h8--3--2---1-1-1-1-3-----
--0--0-3h5--7--7------8--7-----------------
                             . . . .


Important: The song above is NOT stored on the Chordie server. The original song is hosted at www.xguitar.com. Chordie works as a search engine and provides on-the-fly formatting. Chordie does not index songs against artists'/composers' will. To remove this song please click here.

This song is displayed as text-only. Transposing and tuning is only available for chordpro-songs.

Login - add to songbook

Rating click stars to rate

Layout
Accuracy

SHARE PAGE  




You need to log in to post comments