Guitar Tabs, Chords and Lyrics


A Crow Left of the Murder   Incubus



Artist: Incubus
Album: A Crow Left Of The Murder (2004)
Song: A Crow Left Of The Murder
Guitarist: Mike Einziger (awesome)

Tuning: Normal - low to high (E a d g b e)

I tabbed this song after watching the Crow Left Of The Murder Bonus DVD
when I bought the CD.  Im  positive this is how he plays it...either way it
sounds perfect and its fun to play....a grade \\\"A\\\" joint from thier new album.  I
tabbed this song on 2/3/04, the same day the CD came out so everyone could 
play it right away.......enjoi

/ = slide up
 = slide down

intro and verse - picked pretty fast
e-----------------------------------------------------------------------------------------------------------|
b-----------------------------------------------------------------------------------------------------------|
g-----------------------------------------------------------------------------------------------------------|
d----------9------------------------------------------------------9-----------------------------------------|
a----9--11----------9--11-----------------2----------------9--11----------9--11----------------2------------|
E-0----------------0-------------0--2--4-----4--2--4----0---------------0-------------0--2--4-----4--2--4---|

e-----------------------------------------------------------------------------------------------------------|
b-----------------------------------------------------------------------------------------------------------|
g-----------------------------------------------------------------------------------------------------------|
d-------------13-------------------------------------------------9-------------------2--4-----4-4-4--2------|
a-------9--11----11--9--11---------------6-----------------9--11---------9--11-------0--4--0--4-4-4--2------|
E----0--------------------------0--2--4-----4--2--4-----0--------------0-------------0--2--0--2-2-2--0------|

chorus
e------------------------------|
b------------------------------|
g-------4-----7-----8--------|
d-------5-----7-----9--------|
a-------5-----5-----9--------|
E-------3-----5-----7--------|
                                                                                     part when brandon sings really high
bridge - no rhythm indicated                    5x                  -this is kinda hard to catch 
e----------------------------------------------------------|              |-----------------------|
b----------------------------------------------------------|              |-----------------------|
g----4------7---/---9------4-----2--4--5--4--5--4----|              |---4---7---12---10--|   1x
d-----------------------------------0--0--0--0--0--0----|              |-----------------------|
a----2------5---/---7------2-----------------------------|             |---2---5---10---8---|
E----0-----------------------------------------------------|             |---0------------------|

post bridge- Mike plays the main riff 2x then plays this
e---------------------------------------------------------------------------------------------------------|
b---------------------------------------------------------------------------------------------------------|
g---------------------------------------------------------------------------------------------------------|
d-----------------9----------------4-----4-4-4--2----------------9----------------4------4-4-4--2---|
a--------9--11--------9--11--0--4--0--4-4-4--2-------9--11--------9--11--0--4--0--4-4-4--2---|
E----0--------------0----------0--2--0--2-2-2--0----0-------------0----------0--2--0--2-2-2--0---|

e-----------------------------------------------------------------------------------------------------------------------|
b-----------------------------------------------------------------------------------------------------------------------|
g-----------------------------------------------------------------------------------------------------------------------|
d-----------------13---------13--------4-----4-4-4--2----------------13---------13---------4------4-4-4--2-----|
a--------9--11----------9---11----0--4--0--4-4-4--2-------9--11----------9---11------0--4--0--4-4-4--2-----|
E----0----------------0-------0-----0--2--0--2-2-2--0----0-------------0--------0-------0--2--0--2-2-2--0-----|

End
e---------------------|              |----------------------------|       
b---------------------|              |----------------------------|   
g---------------------|  14x      |----------------------------|  1x
d--------------13----|             |-------4-----4-4-4--2---- |  
a---9----11---11---|              |---0--4--0--4-4-4--2----|
E---0-----0----0----|              |---0--2--0--2-2-2--0----|



Important: The song above is NOT stored on the Chordie server. The original song is hosted at www.xguitar.com. Chordie works as a search engine and provides on-the-fly formatting. Chordie does not index songs against artists'/composers' will. To remove this song please click here.

This song is displayed as text-only. Transposing and tuning is only available for chordpro-songs.

Login - add to songbook

Rating click stars to rate

Layout
Accuracy

SHARE PAGE  




You need to log in to post comments