Guitar Tabs, Chords and Lyrics


Priceless   Incubus



incubus
priceless
a crow left of the murder
korotz
epat_skateboarding@hotmail.com

E A D G B e

INTRO

e||-----------------------------------------------------------------------------------------------||
B||-----------------------------------------------------------------------------------------------||
G||---------------------x-x-----------------------------------------------------------------------||
D||--drum intro--x-x----x-x-----------------------------------------------------------------------||
A||---------------------x-x------9--x-----9-9--x------12-10--------9--x-----9-9--x------7-9-10----||
E||--------------------------5-0-8--x-5-0-8-8--x--8s9--------0-5-0-8--x-5-0-8-8--x--8h9-----------||

e||-----------------------------------------------------------------------||
B||-----------------------------------------------------------------------||
G||-------------------------------------------------------------9---------||
D||---------------------------------------------------------7S8(7)8\\7-----||
A||------9--X-----9-9--X------12-10--------9--X-----9-9--X----------------||
E||--5-0-8--X-5-0-8-8--X--8S9--------0-5-0-8--X-5-0-8-8--X----------------||


CHORUS

e||-----------------------------------------------------------------------||
B||-----------------------------------------------------------------------||
G||-----------------------------------------------------------------------||
D||-----------------------------------------------------------------------||
A||------9--x-----9-9--x------12-10--------9--x-----9-9--x------7-9-10----||
E||--5-0-8--x-5-0-8-8--x--8s9--------0-5-0-8--x-5-0-8-8--x--8h9-----------||

e||-----------------------------------------------------------------------||
B||-----------------------------------------------------------------------||
G||-------------------------------------------------------------9---------||
D||---------------------------------------------------------7S8(7)8\\7-----||
A||------9--X-----9-9--X------12-10--------9--X-----9-9--X----------------||
E||--5-0-8--X-5-0-8-8--X--8S9--------0-5-0-8--X-5-0-8-8--X----------------||

VERSE

e||-------------------------------------||-------------------------------------||
B||-------------------------------------||-------------------------------------||
G||-------------------------------------||-------------------------------------||
D||-------------------------------------||-------------------------------------||
A||------10--x--------10------0---------||---------10--x-----10-10------0------||
E||--5p0--8--x-5p0-xx--8--3-4---3p0-----||-----5p0--8--x-5p0--8--8--3-4---3p0--||
     *         *          * *   *              *        *     *     * *   *


PRE CHORUS

e||--5-5----5----5----5-5----5----5----5-5----5----5-----8--8-----8-----8-||
B||--6-6----6----6----6-6----6----6----5-5----5----5-----8--8-----8-----8-||
G||--5-5-XX-5-XX-5-XX-5-5-XX-5-XX-5-XX-5-5----5----5-----9--9-XX--9-XX--9-||
D||--7-7-XX-7-XX-7-XX-7-7-XX-7-XX-7-XX-5-5-XX-5-XX-5-XX-10-10-XX-10-XX-10-||
A||--5-5-XX-5-XX-5-XX-5-5-XX-5-XX-5-XX-7-7-XX-7-XX-7-XX--8--8-XX--8-XX--8-||
E||------------------------------------5-5-XX-5-XX-5-XX-------------------||

CHORUS

VERSE

PRE CHORUS

CHORUS

BASS INTERLUDE


BREAKDOWN

e||------------8--------------------5-------------------8--------------------5-----||
B||----------x----8h10p8----------x---7h8p7-----------8----8h10p8----------x----7--||
G||--------5--------------------5----(5)------------5--------------------5------5--||
D||------5--------------------5-------------------5--------------------5-----------||
A||--5h7------------------5h7-----------------5h7------------------5h7-------------||
E||--------------------------------------------------------------------------------||

e||------------8-------------------5--------------------8--------------------5-----||
B||----------x----8h10p8---------x---7----------------8----8h10p9----------x----7--||
G||--------5-------------------5-----5--------------5--------------------5------5--||
D||------5-------------------5--------------------5--------------------5-----------||
A||--5h7-----------------5h7------------------5h7------------------5h7-------------||
E||--------------------------------------------------------------------------------||


SOLO

e||--(TREM)------12----14-15---14-14-14-12-12-12-10-10-10h12------------------------------10------||
B||--8-------------------------------------------------------10----10-10-10p8\\7---8p7-8p7---------||
G||-----------------------------------------------------------------------------------------------||
D||-----------------------------------------------------------------------------------------------||
A||-----------------------------------------------------------------------------------------------||
E||-----------------------------------------------------------------------------------------------||

e||--10-10-10-\\8-8-8-\\7-7-7-\\3-3-3--3-3-3--3s5-5--------10p8-------10p8-10p8------10p8-10p8-------||
B||-------------------------------------------------8--------10p8------------10p8-----------10p8--||
G||-----------------------------------------------------------------------------------------------||
D||-----------------------------------------------------------------------------------------------||
A||-----------------------------------------------------------------------------------------------||
E||-----------------------------------------------------------------------------------------------||

e||--10p8------10p8-10p8------10p8-10p8------12p8------10p8-10p8------10p8-10p8------12p8---------||
B||-------10p8-----------10p8-----------10p8------10p8-----------10p8-----------10p8------10p8----||
G||-----------------------------------------------------------------------------------------------||
D||-----------------------------------------------------------------------------------------------||
A||-----------------------------------------------------------------------------------------------||
E||-----------------------------------------------------------------------------------------------||

e||--10p8-10p8------12p8-10p8-----------10p8p7------------10p8p7----------------------------------||
B||------------10p8-----------10p8-10----------10p8p7------------10p8p7---------------------------||
G||---------------------------------------------------8^------------------------------------------||
D||----------------------------------------------------------------------10^----------------------||
A||-----------------------------------------------------------------------------------------------||
E||-----------------------------------------------------------------------------------------------||

e||-----------------------------------------------------------------------------------------------||
B||-----------------------------------------------------------------------------------------------||
G||-----------------------------------------------------------------------------------------------||
D||--s242423232222212120201919181817171616151514141313121211111010998877665544332211-\\\\\\\\---------||
A||-----------------------------------------------------------------------------------------------||
E||-----------------------------------------------------------------------------------------------||


BRIDGE

e||-----------------------------------------------------------------------------------------------||
B||-----------------------------------------------------------------------------------------------||
G||---------------------------------------------------------------------------------2-2-----------||
D||--------5-5---5-5-5---X--9S11-11-9---2--------------------0-------9S11-11-9------2-2-----------||
A||--0-0-0-3-3-0-3-3-3---X--7S-9--9-7-\\-0-0-0--4-4-4---7-7---0-0-0---7S-9--9-7-\\--4-4-4-----------||
E||--------------3-3-3-------------------------2-2-2-S-5-5-S-8--(8)---------------2-2-2-----------||

e||-----------------------------------------------------------------------------------------------||
B||-----------------------------------------------------------------------------------------------||
G||-----------------------------------------------------------------------------------------------||
D||--------5-5---5-5-5---X--9S11-11-9---2--------------------0-------9S11-11-9--------------------||
A||--0-0-0-3-3-0-3-3-3---X--7S-9--9-7-\\-0-0-0--4-4-4---7-7---0-0-0---7S-9--9-7-\\--4-4-4-4-4-4-4-4-||
E||--------------3-3-3-------------------------2-2-2-S-5-5-S-8--(8)---------------2-2-2-2-2-2-2-2-||

CHORUS

VERSE

the riffs are there just piece em together!!
shoutout to ben!



Important: The song above is NOT stored on the Chordie server. The original song is hosted at www.xguitar.com. Chordie works as a search engine and provides on-the-fly formatting. Chordie does not index songs against artists'/composers' will. To remove this song please click here.

This song is displayed as text-only. Transposing and tuning is only available for chordpro-songs.

Login - add to songbook

Rating click stars to rate

Layout
Accuracy

SHARE PAGE  




You need to log in to post comments