Chordie logo

Zee Deveel     Incubus



Intro/Verse
E--3-3-------
B--3-3-------
G--4-4------- (8 Times for Intro;8 times for verse)
D--5-5-2--5-6
A--5-5-2--4-4
E-3----0-----

Prechorus
E--4-4--5-5-4-4--5-5-2
B--5-5--5-5-5-5--5-5-2
G--6-6--6-6-6-6--6-6-3
D--6-6--7-7-6-6--7-7-4
A-4----0---4----0-----
E---------------------

Chorus
E---------------------------------
B---------------------------------
G----------8-8-8-8---------------- (4 times)
D-2-2-2-2--8-8-8-8--7-7-7-7--2-6-6
A-2-2-2-2--6-6-6-6--7-7-7-7--2-6-6
E-0-0-0-0-----------5-5-5-5--0-4-4

Verse repeat 8 times

Solo

E---0-14—-14/15-14-12--14—-14/15-14-12-----------------------------
B--------------------------------------15-14-12/14-12-14/15-14-----
G----------------------------------------------------------------
D----------------------------------------------------------------
A----------------------------------------------------------------
E----------------------------------------------------------------

E--12-14/15-14-12/20-12-12-11/19-11/12-18--11/18-11/18-11--11/18/11-
B-------------------------------------------------------------------
G-------------------------------------------------------------------
D-------------------------------------------------------------------
A-------------------------------------------------------------------
E-------------------------- ----------------------------------------

E-12-11-11/17-17-12/11/17-13-13-13/14/13-9/10---------------------
B-----------------------------------------------------------------
G-----------------------------------------------------------------
D-----------------------------------------------------------------
A-----------------------------------------------------------------
E-----------------------------------------------------------------

Mike then does something w/ his effect pedals which is only palm muting strumming 

Intro Repeat (12 times)

Chorus Repeat (4 times)

E-------------
B-------------
G-------------
D-2-6-2--2-6-2
A-2-6-2--2-6-2
E-0-4-0--0-4-0



Important: The song above is NOT stored on the Chordie server. The original song is hosted at www.xguitar.com. Chordie works as a search engine and provides on-the-fly formatting. Chordie does not index songs against artists/composers will. To remove this song please click here.

This song is displayed as text-only. Transposing and tuning is only available for chordpro-songs.

Rating click stars to rate

Layout
Accuracy

SHARE PAGE  

You need to log in to post comments