Guitar Tabs, Chords and Lyrics


Sink Beneath the Line   Incubus



Incubus - Sink Beneath the Line

As far as i know, this is the only tab for this song i've ever seen
another rockin song from Incubus' first album.....

INTRO

E --------------------------------------------------------
B --------------------------------------------------------
G ----------------------5---5-4-3-------------------------
D -----5--5-4-3-1--0--2---2-------x-3h5-------------------
A ---2---2----------3-------------------------------------
E /3------------------------------------------------------

VERSE

E --------------------------------------------------------------------------------
B ----------------------------------------------------12b-12-10-------------------
G ---------7~------7-6-5---5---------------------10~------------12-10--12-10-12-12
D ---------6~------------7---7-6-5---------------9-~------------------------------
A -5-5--x--------------------------8-5-5---5-5-x----------------------------------
E --------------------------------------------------------------------------------

SOLO

E -------------------18--------15--------15-15-15----13-------13-----------
B -17b----------------------17--------------------15----15-15----15-16-17b-
G -17b-----17b-17-15----15--------15~--------------------------------------
D -------------------------------------------------------------------------
A -------------------------------------------------------------------------
E -------------------------------------------------------------------------
E -------------------------------------------20-x-18-17-15-----------------
B -17b--17-15-17-15--------------------------------------------------------
G ------------------17-16-15-----------------------------------------------
D ---------------------------17-17b-1515-15-------------------------------
A -------------------------------------------------------------------------
E -------------------------------------------------------------------------
E -18-17-15--18b--18--15-18-1518-15--13-15-12--12br12br12--10-12-----------
B -------------------------------------------------------------------------
G -------------------------------------------------------------------------
D -------------------------------------------------------------------------
A -------------------------------------------------------------------------
E -------------------------------------------------------------------------


Important: The song above is NOT stored on the Chordie server. The original song is hosted at www.xguitar.com. Chordie works as a search engine and provides on-the-fly formatting. Chordie does not index songs against artists'/composers' will. To remove this song please click here.

This song is displayed as text-only. Transposing and tuning is only available for chordpro-songs.

Login - add to songbook

Rating click stars to rate

Layout
Accuracy

SHARE PAGE  




You need to log in to post comments