Guitar Tabs, Chords and Lyrics


Consequence   Incubus








Song: Consequence
Artist: Incubus
Album: Make Yourself

tabbed by Francisco Barros (chanchofbp@hotmail.com)
comments and questions are welcomed

Intro:

E||-------------------------------------------------|
B||----------0---------0--------0-------0----0------|
G||º-------13----------13------8--------8----7------|
D||º------0------------0------0---------0----0------|
A||-----11-------------11----6----------6----5------|
E||---12---------------12---7-----------7----6------|

E||------------------------------------------------||
B||----------0---------0--------0-------0----0-----||
G||º-------13----------13------8-8------7----4----º||
D||º------0------------0------0---------0----0----º||
A||-----11-------------11----6---------5-----2-----||
E||---12---------------12---7---------6------3-----||
Verse (play same thing as intro)
last time of the first verse a enters gtr 2:

   gtr 1
E|-------------------------------------------------|
B|----------0---------0--------0-----0-----0-------|
G|--------13----------13------8-8----7-----4-------|
D|-------0------------0------0-------0-----0-------|
A|-----11-------------11----6-------5------2-------|
E|---12---------------12---7-------6-------3-------|
  gtr 2
E|-------------------------------------------------|
B|-------------------------------------------------|
G|-----------------------------///-7-7-7-7-4-4-4-4-|
D|-----------------------------///-----------------|
A|-----------------------------///-5-5-5-5-2-2-2-2-|
E|-----------------------------///-----------------|

then play a little part like a chorus
gtr 1
E|-----------------------------------------|
B|-----------------------------------------|
G|-9-9-9-9-9--9--9--9----------------------|
D|-9-9-9-9-9--9--9--9--9-9-9-9-8-8-8--5----|
A|-7-7-7-7-7--7--7--7--9-9-9-9-8-8-8--5----|
E|---------------------7-7-7-7-6-6-6--3----|
gtr 2
E|-----------------------------------------|
B|-----------------------------------------|
G|-9-9-9-9-13-13-13-13-8-8-8-8-7-7-7--4----|
D|-----------------------------------------|
A|-7-7-7-7-11-11-11-11-6-6-6-6-5-5-5--2----|
E|-----------------------------------------|

Now play another verse. and do the same thing as verse 1
and then play

Chorus:
gtr 1
E|-----------------------------------------|
B|-----------------------------------------|
G|-9-9-9-9-9--9--9--9----------------------|
D|-9-9-9-9-9--9--9--9--9-9-9-9-8-8-8-8-----|
A|-7-7-7-7-7--7--7--7--9-9-9-9-8-8-8-8-----|
E|---------------------7-7-7-7-6-6-6-6-----|
gtr 2
E|-----------------------------------------|
B|-----------------------------------------|
G|-9-9-9-9-13-13-13-13-8-8-8-8-7-7-7-7-----|
D|-----------------------------------------|
A|-7-7-7-7-11-11-11-11-6-6-6-6-5-5-5-5-----|
E|-----------------------------------------|

gtr 1
E|-----------------------------------------|
B|-----------------------------------------|
G|-9-9-9-9-9--9--9--9----------------------|
D|-9-9-9-9-9--9--9--9--9-9-9-9-8-8-8--5----|
A|-7-7-7-7-7--7--7--7--9-9-9-9-8-8-8--5----|
E|---------------------7-7-7-7-6-6-6--3----|
gtr 2
E|-----------------------------------------|
B|-----------------------------------------|
G|-9-9-9-9-13-13-13-13-8-8-8-8-7-7-7--4----|
D|-----------------------------------------|
A|-7-7-7-7-11-11-11-11-6-6-6-6-5-5-5--2----|
E|-----------------------------------------|

After chorus play this: ("...it's bigger than....")

play this three times...
(both gtrs)
E|--------------------------------|
B|--------------------------------|
G|-9-9-9-9-----7-7-7-7------------|
D|-9-9-9-9--8--7-7-7-7--6-6-------|
A|-7-7-7-7--8--5-5-5-5--6-6-------|
E|----------6-----------4-4-------|

...the fourth play this

  gtr 1
E|-----------------------------------------------|
B|-----------------------------------------------|
G|-----------------------------------------------|
D|-9-9---9-9---9-9---9-9---8-8---8-8---8-8---5-5-|
A|-9-9---9-9---9-9---9-9---8-8---8-8---8-8---5-5-|
E|-7-7---7-7---7-7---7-7---6-6---6-6---6-6---3-3-|
  gtr 2
E|-----------------------------------------------|
B|-----------------------------------------------|
G|-8-8---8-8---8-8---8-8---7-7---7-7---7-7---4-4-|
D|-----------------------------------------------|
A|-6-6---6-6---6-6---6-6---5-5---5-5---5-5---2-2-|
E|-----------------------------------------------|

Solo:
gtr 2 keeps doing this:

E|-------------------------------|
B|-------------------------------|
G|-6-6-6-6-----------------------|
D|-6-6-6-6--6--7-7-7-7-7-7-7-7---|
A|-4-4-4-4--6--7-7-7-7-7-7-7-7---|
E|----------4--5-5-5-5-5-5-5-5---|

gtr 1:
E|-----------------------------------------------|
B|-9--9--9--9--9--9--------12b(13)---r(12)-------|
G|-11b11b11b11b11b11b----------------------------|
D|-----------------------------------------------|
A|-----------------------------------------------|
E|-----------------------------------------------|

Chorus again

and then...

E|--------------------------|-------------------------------|
B|--------------------------|-------------------------------|
G|-9-9-9-9-----7-7-7-7------|-9-9-9-9-----7-7-7-7-----------|
D|-9-9-9-9--8--7-7-7-7--6-6-|-9-9-9-9--8--7-7-7-7--6-6------|
A|-7-7-7-7--8--5-5-5-5--6-6-|-7-7-7-7--8--5-5-5-5--6-6-rest-|
E|----------6-----------4-4-|----------6-----------4-4------|

E|--------------------------|--------------------------|-----|
B|--------------------------|--------------------------|-----|
G|-9-9-9-9-----7-7-7-7------|-9-9-9-9-----7-7-7-7------|-----|
D|-9-9-9-9--8--7-7-7-7--6-6-|-9-9-9-9--8--7-7-7-7--x-6-|-6---|
A|-7-7-7-7--8--5-5-5-5--6-6-|-7-7-7-7--8--5-5-5-5--x-6-|-6---|
E|----------6-----------4-4-|----------6-----------x-4-|-4---|



Important: The song above is NOT stored on the Chordie server. The original song is hosted at www.xguitar.com. Chordie works as a search engine and provides on-the-fly formatting. Chordie does not index songs against artists'/composers' will. To remove this song please click here.

This song is displayed as text-only. Transposing and tuning is only available for chordpro-songs.

Login - add to songbook

Rating click stars to rate

Layout
Accuracy

SHARE PAGE  




You need to log in to post comments