Guitar Tabs, Chords and Lyrics


Drive   Incubus



Drive
By Incubus
Transcribed by Mike Mahon (the-anchor@home.com)
http://members.home.com/the-anchor

Standard Tuning
HRM - Natural Harmonic on Indicated Fret
/ - Repeat
^ - Bend

Intro
~~~~~
|------3--3-3-xx----0-0----0--0-0-xx----0--0-|
|------0--0-0-xx----3-3----0--0-0-xx----0--0-|
|------0--0-0-xx----0-0----0--0-0-xx----0--0-|
|------2--2-2-xx----2-2----2--2-2-xx----2--2-|
|----2-2--2-2-xx----2-2-3--3--3-3-xx-0-------|
|--0---0--0-0-xx-0--0-0----------------------|

Verse
~~~~~
|------3--3---xx----0------0--0---xx----0--0-|
|------0--0---xx----3------0--0---xx----0--0-|
|------0--0---xx----0------0--0---xx----0--0-|
|------2--2---xx----2------2--2---xx----2--2-|
|----2-2--2---xx----2---3--3--3---xx---------|
|------0--0---xx----0------------------------|
 Adlib on the rhythm of each chord

Pre-Chorus
~~~~~~~~~~
|--0-/-/-/-/-/-/-/-/-/-/-/-/-/-/-/-/-/-/-/-/-/-/-/-/-/--|
|--0-/-/-/-/-/-/-/-/-/-/-/-/-/-/-/-/-/-/-/-/-/-/-/-/-/--|
|--0-/-/-/-/-/-/-/-/-/-/-/-/-/-/-/-/-/-/-/-/-/-/-/-/-/--|  / = repeat chord
|--2-/-/-/-/-/-/-/-/-/-/-/-/-/-/-/-/-/-/-/-/-/-/-/-/-/--|
|--3-/-/-/-/-/-/-/-/-/-/-/-/-/-/-/-/-/-/-/-/-/-/-/-/-/--|
|--0-/-/-/-/-/-/-/-/-/-/-/-/-/-/-/-/-/-/-/-/-/-/-/-/-/--|
|
|--0--0--0--0-0--0-0--0-0-0--0--0--0--0-0--0-0-0--0-0-0-|
|--0--0--0--0-0--0-0--0-0-0--3--3--3--3-3--2-0-0--2-0-0-|
|--0--0--0--0-0--0-0--0-0-0--0--0--0--0-0--0-0-0--0-0-0-|
|--2--2--2--2-2--2-2--2-2-2--2--2--2--2-2--2-2-2--2-2-2-|
|--3--3--3--3-3--3-3--3-3-3--3--3--3--3-3--3-3-3--3-3-3-|
|-------------------------------------------------------|

Chorus
~~~~~~
|------3--3-3-xx----0-0----0--0-0-xx----0--0-|
|------0--0-0-xx----3-3----0--0-0-xx----0--0-|
|------0--0-0-xx----0-0----0--0-0-xx----0--0-|
|------2--2-2-xx----2-2----2--2-2-xx----2--2-|
|----2-2--2-2-xx----2-2-3--3--3-3-xx-0-------|
|--0---0--0-0-xx-0--0-0----------------------|
|
|--12--12--12--12--|
|----12--12--12----| 
|------------------| Repeat throughout the Chorus
|------------------|
|------------------|
|------------------|
HRM - - - - - - -

Solo
~~~~
|--0-0-0-0-0/--7/--5/--3--------------------------------------5/7-7--7/5--5/10--7--5--7---|
|---------------------------10/--3/--5--------5-----5-----------------------------------5-|
|--------------------------------------7^7------7^----7^----8-----------------------------|
|-----------------------------------------------------------------------------------------|
|-----------------------------------------------------------------------------------------|
|-----------------------------------------------------------------------------------------|

|-------------5----5/3-------------|
|--3/5-----------------5/3---------|
|------7^7-----------------4/2-2/4-|
|----------------------------------|
|----------------------------------|
|----------------------------------|


Important: The song above is NOT stored on the Chordie server. The original song is hosted at www.xguitar.com. Chordie works as a search engine and provides on-the-fly formatting. Chordie does not index songs against artists'/composers' will. To remove this song please click here.

This song is displayed as text-only. Transposing and tuning is only available for chordpro-songs.

Login - add to songbook

Rating click stars to rate

Layout
Accuracy

Jango Player

SHARE PAGE  




You need to log in to post comments