Guitar Tabs, Chords and Lyrics


I Miss You   Incubus



Artist: Incubus
Song: I Miss You
Album: Make Yourself
Year: 1999
Versions: 2
======================================================================
======================================================================
======================================================================
I Miss You - Incubus
Tabbed by: Adam Wood (adam311@hotmail.com)
 
 
Tune Low E down to D
 
 
Intro/Verse:
============
N.C.
1:-----------------------------
2:-----------------------------
3:-----------------------------
4:-----0-----------0---0--(5)--
5:---4---4---4---4---4---------
6:-0-------0---5---------------
 
 
Chorus:
=======
 
These are not exact tabs, just ideas of where this is being played
 
1:----------------------------------0-0-0------
2:-------0---------------0----------3-3-3------
3:---------0----0--------0----------2-2-2------
4:-----0--------------0------0-0-0-------------
5:---------------------------0-0-0-------------
6:--9---------9-----5--------0-0-0-------------
 
 
1:------------------------------------10---10---10---
2:-------0---------------0---------------------------
3:---------0----0--------0----------7----7----7------
4:-----0--------------0------0-0-0-------------------
5:---------------------------0-0-0-------------------
6:--9---------9-----5--------0-0-0-------------------
 
 
1:--------------------------------------------------------
2:-------0---------------0-------------------0-------0----
3:---------0----0--------0---7-7-7---4---------0-------0--
4:-----0--------------0--------------4-----0--------0-----
5:---------------------------5-5-5---2--------------------
6:--9---------9-----5--------0-0-0-------5-------5--------
 
 
 
Reapeat all
 
 
Again, some parts of this are not exact tabs, but good ideas of where it is being played. I'm sure once you learn the tabs and maybe play with the cd you'll have the song down.
======================================================================
======================================================================
======================================================================
Incubus "Drive"
Transcribed by: Chris Saunders
 
I fooled around with the other Drive tab that was written and came up with this
 
The tuning is slightly different than a simple drop D, it is a DAD GAD tuining. It is used alot in folk music.
 
*Tune the bass string down to D, then tune the high E string down to D to match the bass string. Then tune the second highest string to A (the same as the second lowest string). The tuning creates more of a drone sound to it and makes things sound more open.
 
Im not going to write down all the exact notes but here are the chords
 
Intro and Verse 
*=false harmonic(play the note with your finger on the string and over the fret but don't push the string down. You should get the ringing sound)
x12
|------------------------------------------|
|------------------------------------------|
|------------------------------------------|
|---------0-----------------0----0--5*-----|
|------4----4----4-----4----4--------------|
|---0----------0----5----------------------|
 
Chorus (These are the chords, but there in everything but the right timing. Listen to the song to get the flow of it. If you have Napser, download the acoustic version, it is much easier to hear the guitar. Second, don't be confused by the chords that are close togeather, they are different voicings of the same chord that you can hear if you really listen. Mike is a really good guitar player and this is some fairly technical playing, but it is one of my favorite songs ever.
 
|----------------2---------------------------------------------------------------------|-
|--2-------------0------2-------------5-4-5------2-----------5------2------------4--5--|-
|--4------0------2------4------0------2-2-2------4-----0-----2------4------0--0--0--0--|-
|--4------5------0------4------5------0-0-0------4-----5-----0------4------5--4--0--0--|-
|--2------5------0------2------5------0-0-0------2-----5-----0------2------5--5--5--5--|-
|---------5------0-------------5------0-0-0------------5-----0-------------5--5--5--5--|-
 
The Last Chord
 
|---7----|
|---5----|
|---7----|
|---0----|
|---0----|
|---0----|
 
*Download the Acoustic Version from Napster to hear the guitar better*


Important: The song above is NOT stored on the Chordie server. The original song is hosted at www.xguitar.com. Chordie works as a search engine and provides on-the-fly formatting. Chordie does not index songs against artists'/composers' will. To remove this song please click here.

This song is displayed as text-only. Transposing and tuning is only available for chordpro-songs.

Login - add to songbook

Rating click stars to rate

Layout
Accuracy

SHARE PAGE  




You need to log in to post comments